Rolling Stones – She’s A Rainbow

шрифт
Print this page
2021-01-02 Rolling Stones – She’s A Rainbow
Intro:
                                                F
E-8--10--11--13--15--18--17--17--17--15--18--17--| 
B------------------------------------------------| 
G------------------------------------------------| 
D------------------------------------------------|
A------------------------------------------------|
E------------------------------------------------|

F  Bb                      Eb
She comes in colors ev'rywhere
               Bb
She combs her hair
             Bb7 Bb
She's like a rainbow
                      Eb
Coming, colors in the air
          Bb
Он, everywhere
              F Bb
She comes in colors

                                                F
E-8--10--11--13--15--18--17--17--17--15--18--17--| 
B------------------------------------------------| 
G------------------------------------------------| 
D------------------------------------------------|
A------------------------------------------------|
E------------------------------------------------|

F Bb                       Eb
She comes in colors ev'rywhere
               Bb
She combs her hair
             Bb7 Bb
She's like a rainbow
                      Eb
Coming, colors in the air
          Bb
Он, everywhere
              F  Bb
She comes in colors

                                                F
E-8--10--11--13--15--18--17--17--17--15--18--17--| 
B------------------------------------------------| 
G------------------------------------------------| 
D------------------------------------------------|
A------------------------------------------------|
E------------------------------------------------|

F  Bb                      Eb
Have you seen her dressed in blue?
               Bb
See the sky in front of you
             Bb7 Bb
And her face is lik a sail
                      Eb
Speck of white so fair and pale
                      Bb
Have you seen a lady fairer?
                          Eb
She comes in colors ev'rywhere
               Bb
She combs her hair
             Bb7 Bb
She's like a rainbow
                      Eb
Coming, colors in the air
          Bb
Он, everywhere
              F  Bb
She comes in colors

F  Bb                      Eb
Have you seen her all in gold?
               Bb
Like a queen in days of old
             Bb7 Bb
She shoots her colors all around
                      Eb
Like a sunset going down
                      Bb
Have you seen a lady fairer?
                          Eb
She comes in colors ev'rywhere
               Bb
She combs her hair
             Bb7 Bb
She's like a rainbow
                      Eb
Coming, colors in the air
          Bb
Он, everywhere
              F  Bb
She comes in colors   

                                                F
E-8--10--11--13--15--18--17--17--17--15--18--17--| 
B------------------------------------------------| 
G------------------------------------------------| 
D------------------------------------------------|
A------------------------------------------------|
E------------------------------------------------|

F Bb Eb Bb

             Bb7 Bb
She's like a rainbow
                      Eb
Coming, colors in the air
          Bb
Он, everywhere
              F   Bb
She comes in colors

Rolling Stones - She's A Rainbow аккорды

guitar chord F
guitar chord Eb
guitar chord Bb
guitar chord Bb7

Разбор Rolling Stones - She's A Rainbow на гитаре

1 Звезда2 Звезды3 Звезды4 Звезды5 Звезд (Пока оценок нет)
Загрузка...

Добавить комментарий

Ваш адрес email не будет опубликован. Обязательные поля помечены *