Rolling Stones – Angie

шрифт
Print this page
2021-03-24 Rolling Stones – Angie
Intro:
                        
|------|--0---0---3^0----------|--------0----------0----0--|
|------|--1---1---1------1-----|------0---0--------0-------|
|------|--2---2---2----2-------|----1-------1------1-------|
|------|--2---2---2--------2-2-|---------------------------|
|------|-----------------------|-12------------------------|
-------|-----------------------|-0-------------4-----------|

                                               
|---------3---------1-1------|-1---------1--------------0--|
|-------3---3-------1-1------|---1-------------------------|
|-----5-------5-----3-2------|--------2----------0---------|
|-5-------------5---3-3------|------3----------3----2------|
|----------------------------|---------------3-------------|
|----------------------------|-----------------------------|

|----------------------------------|
|-------0-------0^1----------------|
|---------0-----2------------------|
|----0----------2------------------|
|--2------------0------------------|
-----------------------------------|

Am         E7
Angie...Angie
G F E7  Am    
When will those clouds all disappear
Am E7
Angie...Angie
G  F E7  Am 
Where will it lead us from here
G
With no loving in our souls
Dm   Am
and no money in our coats
C      F          G    
You can´t say we´re satisfied
Am E7
Angie...Angie
G       F        Em7 Am
You can´t say we never tried
Am  E7
Angie...you´re beautiful..yeah
G              F       Em7     Am
but aint it time we said goodbye
Am  E7
Angie, I still love you
G           F         Em7   Am
Remember all those nights we cried
G
All the dreams we held so close
 Dm   Am
Seemed to all go up in smoke
C F  G
Let me whisper in your ear
Am  E7
Angie...Angie {whispered...[duh?]}
G F Em7 Am
Where will it lead us to here

Am  E7  G  F  Em7  Am 

	G
Oh Angie don´t you weep
Dm   Am
All your kisses still taste sweet
C F  G
I hate that sadness in your eyes
Am  E7 
but Angie....Angie
G  F  Em7  Am   
Aint it time we said goodye...angie

E7  G  F  Em7  Am 

		G
With no loving in our souls
Dm   Am
And no money in our coats
C F  G 
You can´t say we´re satisifed
Dm   Am
But Angie, I still love you baby
Dm   Am
Everywhere I look, I see your eyes
Dm    Am
There aint a woman that comes close to you
  C F  G
Come on baby dry your eyes
Am E7
Angie...Angie
G   F    Em7    Am 
Aint it good to be alive
Am E7
Angie...Angie
G F     Em7   Am
They can´t say we never tried

Rolling Stones - Angie аккорды

guitar chord Am
guitar chord C
guitar chord Dm
guitar chord Em7
guitar chord F
guitar chord G
guitar chord E7

Разбор Rolling Stones - Angie на гитаре

1 Звезда2 Звезды3 Звезды4 Звезды5 Звезд (Пока оценок нет)
Загрузка...

Добавить комментарий

Ваш адрес email не будет опубликован. Обязательные поля помечены *