Red Hot Chili Peppers – Under The Bridge

шрифт
Print this page
2020-11-09 Red Hot Chili Peppers – Under The Bridge
Intro  
e:-------------------------------------------------------------------|
B:3-----------3--------------2--------------------------------------2|
G:------2--------2-----------------------3---------------------------|
D:---4-----4--------4-2------------4--------4--4-2------------4------|
A:5---------------------5-4-----4-----4-------------5-2--4/5-----5---|
E:---------------------------2---------------------------------------|

         Н P
e:-------------------------------------------------------------------|
B:-----3-5-3-------------2-------------------------------------------|
G:------------2----------------------3-------------------------2-----|
D:---------------4/6--6--------4--------4--4-2-----------4--------4--|
A:--5------------5/7--7-----4-----4------------5-2--4/5-----5--------|
E:-----------------------2-------------------------------------------|

                                                              Н P
e:-------------------------------------------------------------------|
B:3---------------------------------------------------------3-5-3----|
G:---2---------------------3--------------------------2------------2-|
D:-------------------4--------4--4-2------------4--------4-----------|
A:------4-2-------4-----4-------------5-2--4/5-----5-----------------|
E:-----------5-4-----------------------------------------------------|

e:-----------------------------------------|
B:-----------------------------------------|
G:---------------------3--------3----------|
D:-4/6--6--------4--------4--------4-------|
A:-5/7--7-----4-----4--------4--------4----|
E:---------2-------------------------------|

Part I:
   E   B   C#m          G#m A       E   B  C#m A
e:---------------9--9------------------------------|
B:---------------9--9------------------------------|
G:-13--8---------9--9---4---6-------13--8--9---6---|
D:-14--9--10/11---------6---7-------14--9--11--7---|
A:-14--9--10/11---------6---7-------14--9--11--7---|
E:-12--7---8/9----------4---5-------12--7--9---5---|
    
                     Emaj7
e:-repeat-Part-I,----7--------|
B:-put-play-just-----9--------|
G:-C#m,-without------8--------|
D:-slide-and-upper---9--------|
A:-strings-----------7--------|
E:-------------------7--------|

Part II:             Н P                              Н P
e:----12-12-----7----------------------------------5-7-5-------------|
B:----12-12-----7----------------------------------------5-----------|
G:13--13-13--8--8-8-9-8---8-------9-----9------------------------13--|
D:14---------9----------9---10/11-11-11-11---6--7----------------14--|
A:14---------9-------------------------------6--7----------------14--|
E:12---------7-------------------------------4--5----------------12--|

                Н P
e:12-12-----7-------------------------------5--------------12-12----7|
B:12-12-----7---------------------------------5------------12-12----7|
G:13-13--8--8-8-9-8---8-------9-----9---6-------6------13--13-13--8-8|
D:-------9----------9---10/11-11-11-11--7--------------14---------9--|
A:-------9------------------------------7--------------14---------9--|
E:-------7------------------------------5--------------12---------7--|

     Н P                             Н P
e:---------------------------------5-7-5------------12-12----7-------|
B:---------------------------------------5----------12-12----7-------|
G:-8-9-8---8-------9-----9----------------------13--13-13--8-8-----8-|
D:-------9---10/11-11-11-11--6--7---------------14---------9----9----|
A:---------------------------6--7---------------14---------9---------|
E:---------------------------4--5---------------12---------7---------|

e:-----9-9---5--5------7--|
B:-----9-9---5-----5---9--|
G:-9---9-9---6---------8--|
D:-11--------7---------9--|
A:-11--------7---------7--|
E:-9---------5---------7--|

Part III:
e:---9----------9---------------------------7-7-7-7-7----9----9--9---|
B:---10---------10--------------------------7-7-7-7-7----10---10-10--|
G:---11---------11------13------------------8-8-8-8-8----11---11-11--|
D:---11---------11------14-------14---------9-9-9-9-9----11---11-11--|
A:----------------------14-------14----------------------------------|
E:----------------------12-------12----------------------------------|

e:--X--X--X--X-------repeat-this-3-times,-------|
B:--X--X--X--X-------but-without-the-shuffeled--|
G:--X--X--X--X-------(X-stuff)-part-for-the-----|
D:--X--X--X--X-------last-time------------------|
A:----------------------------------------------|
E:----------------------------------------------|

            Н P                                  Н P
e:--0--7---------------------------------------5-7-5------------12--1|
B:--0--7--7-9-7-----7----------------------------------5--------12--1|
G:--1--8---------8-----------9-------9---4--6---------------13--13--1|
D:--2--9---------------9/11--11--11--11--6--7---------------14-------|
A:--2--9---------------------------------6--7---------------14-------|
E:--0--7---------------------------------4--5---------------12-------|

             Н P
e:2-----7------------------------------------5-----------------------|
B:2-----7---------------------------------------5--------------------|
G:3--8--8--8-9-8-----8--------9-------9---6--------6-----------------|
D:---9------------9-----9/11--11--11--11--7---------------14---------|
A:---9------------------------------------7-------------------14-----|
E:---7------------------------------------5-----------12----------7--|

       Н P
e:----------------------------------------5-------------12--12-------|
B:-------------------------------------------5----------12--12-------|
G:8--8-9-8-----8--------9-------9---------------6---13--13--13-----8-|
D:----------9-----9/11--11--11--11--6--7------------14---------------|
A:----------------------------------6--7------------14----------9----|
E:----------------------------------4--5------------12----------7----|

        Н                                                      Н P
e:----7-9-7---------------------5-------------12--12-----------------|
B:----7---7-----------------------5-----------12--12------7----------|
G:------------9---9---9-----6-------6-----13--13--13------8--8-9-8---|
D:-9----------11--11--11----7---------7---14-----------9--9--------9-|
A:------------11--11--11----7-------------14-----------9-------------|
E:------------9---9---9-----5-------------12-----------7-------------|

                                Н P
e:----------------------------5-7-5----------------------------------|
B:-----------------------------------5-----------------7-------------|
G:8--------9-------9-----------------------------------8-------8-----|
D:---9/11--11--11--11--6--7---------------------14--9--9----9-----11-|
A:---------------------6--7--------------13/14--14--9-------------11-|
E:---------------------4--5--------------11/13------7-------------9--|                     

                                         Part IV:
e:-------------5----7-|---------------|--0--5----------0--0--|
B:---------------5--9-|-play-Part-III-|--5--5--3-3--3--0--1--|
G:------------------8-|---------------|--6--5--4-4--4--2--2--|
D:-11--11---7-------9-|---------------|--7--5--5-5--5--3--3--|
A:-11--11---7-------7-|---------------|----------------------|
E:-9---9----5---------|---------------|----------------------|

e:--play-chords--F F F F E E E E G G G G -----|
B:--------------------------------------------|
G:--I-don't-know-how-many-times,-but-it's-----|
D:--easy-to-hear,-and-anyway,-it's-the-bass---|
A:--line--------------------------------------|
E:--------------------------------------------|

Part V:                       P
e:--0--------------0-0--0--0------------------0--------------0--0--0-|
B:--5--5--8--5--5--3-3--3--1-------1----------5--5--8--5--5--3--3--3-|
G:--6--5--5--5--5--4-4--4--2--0-2-----2-0-----6--5--5--5--5--4--4--4-|
D:--7--5--5--5--5--5-5--5--3------------------7--5--5--5--5--5--5--5-|
A:-------------------------------------------------------------------|
E:-------------------------------------------------------------------|

        P
e:-0--------------|--------------------------|
B:-1------1-------|--play-Part-V-another-----|
G:-2--0-2---2-0-2-|--3-times-----------------|
D:-3--------------|--------------------------|
A:----------------|--------------------------|
E:----------------|--------------------------|

Outro:
e:-0--0-0---------------------0--0--0-0------------------------0--0--|
B:-5--5-5---5--5--X--X--5--3--0--5--5-5--5--5--8--5-5--3--3----0--1--|
G:-6--6-6---5--5--X--X--5--4--2--6--6-6--5--5--5--5-5--4----4--2--2--|
D:-7--7-7---5--5--X--X--5--5--3--7--7-7--5--5--5--5-5--5-------3--3--|
A:-------------------------------------------------------------------|
E:-------------------------------------------------------------------|

    Н P                                                             Н
e:--------0--0-0-------------------------0--0-------0--0-0-----------|
B:1-3-1---5--5-5--5--5--8--5-5--3--3-----0--1--1----5--5-5--5--5-----|
G:--------6--6-6--5--5--5--5-5--4----4---2--2--2-2--6--6-6--5--5--5-7|
D:--------7--7-7--5--5--5--5-5--5--------3--3----3--7--7-7--5--5-----|
A:-------------------------------------------------------------------|
E:-------------------------------------------------------------------|

   P
e:---------------0--0---|
B:-------3--3----0--1--2|
G:-5-----4----4--2--2--2|
D:---5---5-------3--3--2|
A:----------------------|
E:----------------------|

Red Hot Chili Peppers - Under The Bridge аккорды

guitar chord A
guitar chord B
guitar chord E
guitar chord Emaj7
guitar chord C#m
guitar chord G#m

Разбор Red Hot Chili Peppers - Under The Bridge на гитаре

1 Звезда2 Звезды3 Звезды4 Звезды5 Звезд (Пока оценок нет)
Загрузка...

Добавить комментарий

Ваш адрес email не будет опубликован. Обязательные поля помечены *