Pink Floyd – Comfortably Numb (btab)

шрифт
Print this page
2021-03-22 Pink Floyd – Comfortably Numb (btab)
Intro:
  Bm        Bm 
G||-----------|----------||
D||-----------|----------||
A||2---2-2----|2----2----||
E||-----------|----------||
            guitar slide
 
Verse 1:
  Bm          A          G     Em    B
G||-----------|----------|-----------|----------|
D||-----------|----------|-----------|----------| x3
A||2---2-2----|0----0----|-----------|2----2----|
E||-----------|----------|3---2-0----|----------|
  "hello..."
 
Chorus 1: x2
   D           A          D          A          C          G          C         G
G||-----------|----------|----------|----------|----------|----------|---------|----------||
D||-----------|----------|----------|----------|----------|----------|---------|----------||  
A||5-------5--|0---------|5------5--|0-------2-|3---------|--------2-|3--------|----------||
E||-----------|----------|----------|----------|----------|3---------|---------|3---------||
  "There is no pain..."
                                
Bridge 1: 
  A           C    G     D           
G||-----------|----------|----------||
D||-----------|----------|----------||
A||0--0-0---2-|3---------|5----5----||
E||-----------|-----3----|----------||
"I...have become comfortably numb" 
 
Guitar solo 1: 
  D          A              D          A           C          G           C          G
G||---------|--------------|---------|-----------|----------|-----------|----------|---------||
D||---------|--------------|---------|-----------|----------|-----------|----------|---------||
A||5----5---|0---0-0--2-3-4|5----5---|0---0-0--2-|3----3----|---------5-|3---3-3---|---------||
E||---------|--------------|---------|-----------|----------|3---2-3----|----------|3--3-3---||
 
Bridge 2:  
   A           C      G     D
G||-----------|------------|----------||
D||-----------|------------|----------||
A||0----0---2-|3--3-5------|5---------||
E||-----------|-------3----|----------||
"I...have become comfortably numb"
 
Verse 2:
  Bm          A          G     Em    B
G||-----------|----------|-----------|----------|
D||-----------|----------|-----------|----------| x2
A||2---2-2----|0----0----|-----------|2----2----|
E||-----------|----------|3---2-0----|----------|
 
Chorus 2:
   D           A          D          A          C          G          C         G
G||-----------|----------|----------|----------|----------|----------|---------|----------||
D||-----------|----------|----------|----------|----------|----------|---------|----------||  
A||5-------5--|0---------|5------5--|0-------2-|3---------|--------2-|3--------|----------||
E||-----------|----------|----------|----------|----------|3---------|---------|3---------||
 
Bridge 3:     
    A             C     G     D            D   
G||-------------|-----------|------------|----------|| 
D||---7--7------|-----------|------------|----------||
A||0--------0-2-|3---3------|5--5--5--5--|5--5--5---||
E||-------------|------3----|------------|----------||
"I...have become comfortably numb"

Pink Floyd - Comfortably Numb (btab) аккорды

guitar chord A
guitar chord B
guitar chord Bm
guitar chord C
guitar chord D
guitar chord Em
guitar chord G

Разбор Pink Floyd - Comfortably Numb (btab) на гитаре

1 Звезда2 Звезды3 Звезды4 Звезды5 Звезд (Пока оценок нет)
Загрузка...

Добавить комментарий

Ваш адрес email не будет опубликован. Обязательные поля помечены *