Oasis – Roll It Over

шрифт
Print this page
2020-10-16 Oasis – Roll It Over
[email protected]
26th January 2001, 9.52pm
ROLL IT OVER by OASIS
Written by Noel Gallagher
From 'Standing On The Shoulder Of Giants'
I hope this makes sense to ya - feel free to correct me if I'm wrong.
Chords used:
C#m7:     x46600    Bsus4/F#: 2x4400    A:  x02220
C#m13:    x06600    E:        022100
Bsus4:    x24400    F#7add4:  244300
Bsus4/A:  x04400    Aadd9:    577600
Bsus4/G#: 4x4400    G6:       355400
Intro:
N.C. (drums)
Guitar 1:
                  C#m7                          C#m13
--------------|--0-----------|--------------|--0-----------|--------------|
--------------|--0-----------|--------------|--0-----------|--------------|
--------------|--6-----------|--------------|--6-----------|--------------| (x2)
--------------|--6-----------|--------------|--6-----------|--------------|
--------------|--4-----------|--------------|--0-----------|--------------|
--------------|--------------|--------------|--------------|--------------|
Guitar 2:
--------------|--------------|--------------|--------------|--------------|
-------5------|--------------|--------------|--------------|--------------|
-4h6p4---6p4--|--------------|--------------|--------------|--------------| (x1)
--------------|--------------|--------------|--------------|--------------|
--------------|--------------|--------------|--------------|--------------|
--------------|--------------|--------------|--------------|--------------|
VERSE:
Gtr 1:
  C#m7                          C#m13
--0^----------|--------------|--0^----------|--------------|
--0^----------|--------------|--0^----------|--------------|
--6^----------|--------------|--6^----------|--------------|
--6^----------|--------------|--6^----------|--------------|
--4^----------|--------------|--0^----------|--------------|
--------------|--------------|--------------|--------------|
Gtr 2:
--------------|--------------|--------------|--------------|
--------------|--------------|--------------|--------------|
--------------|--------------|--------------|--------------|
--------------|--------------|--------------|--------------|
--------------|--------------|--------------|--------------|
--------------|--------------|--------------|--------------|
  I can give a hundred million  reasons to build a barri-
Gtr 1:
  C#m7:                         C#m13
--0^----------|--------------|--0^----------|--------------|
--0^----------|--------------|--0^----------|--------------|
--6^----------|--------------|--6^----------|--------------|
--6^----------|--------------|--6^----------|--------------|
--4^----------|--------------|--0^----------|--------------|
--------------|--------------|--------------|--------------|
Gtr2:
--------------|--------------|--------------|--------------|
--------------|-5------------|--------------|-5------------|
----6p4-4h6p4-|---6p4-4h6p4--|----6p4-4h6p4-|---6p4-4h6p4--|
--------------|--------------|--------------|--------------|
--------------|--------------|--------------|--------------|
--------------|--------------|--------------|--------------|
 -cade.
Gtr 1:
  C#m7                          C#m13
--0^----------|--------------|--0^----------|--------------|
--0^----------|--------------|--0^----------|--------------|
--6^----------|--------------|--6^----------|--------------|
--6^----------|--------------|--6^----------|--------------|
--4^----------|--------------|--0^----------|--------------|
--------------|--------------|--------------|--------------|
Gtr 2:
--------------|--------------|--------------|--------------|
--------------|--------------|--------------|--------------|
--------------|--------------|--------------|--------------|
--------------|--------------|--------------|--------------|
--------------|--------------|--------------|--------------|
--------------|--------------|--------------|--------------|
  I blame it on the changing of the seasons, the thoughts that I con-
Gtr 1:
  C#m7:                         C#m13
--0^----------|--------------|--0^----------|--0-----------|
--0^----------|--------------|--0^----------|-----0--------|
--6^----------|--------------|--6^----------|--------6-----|
--6^----------|--------------|--6^----------|-----------6--|
--4^----------|--------------|--0^----------|--------------|
--------------|--------------|--------------|--------------|
Gtr2:
--------------|--------------|--------------|--------------|
--------------|-5------------|--------------|-5------------|
----6p4-4h6p4-|---6p4-4h6p4--|----6p4-4h6p4-|---6p4-4h6p4--|
--------------|--------------|--------------|--------------|
--------------|--------------|--------------|--------------|
--------------|--------------|--------------|--------------|
 -vey.
PRE-Chorus:
Gtr 1:
  Bsus4          Bsus4/A        Bsus4/G#       Bsus4/F#
--0-----0-----|--0------0----|--0-----0-----|--0-----0-----|
--0-----0-----|--0------0----|--0-----0-----|--0-----0-----|
--4-----4-----|--4------4----|--4-----4-----|--4-----4-----|
--4-----4-----|--4------4----|--4-----4-----|--4-----4-----|
--2-----2-----|--0------0----|--x-----x-----|--x-----x-----|
--------------|--------------|--4-----4-----|--2-----2-----|
Gtr 2:
--------------|--------------|--------------|--------------|
--------------|--------------|--------------|--------------|
--------------|--------------|--------------|--------------|
--------------|--------------|--------------|--------------|
--------------|--------------|--------------|--------------|
--7-----7-----|--5-----5-----|--4-----4-----|--2-----2-2/7-|
     Does it     make it al  -  right?
Gtr 1:
  Bsus4          Bsus4/A        Bsus4/G#       Bsus4/F#
--0-----0-----|--0------0----|--0-----0-----|--0-----0-----|
--0-----0-----|--0------0----|--0-----0-----|--0-----0-----|
--4-----4-----|--4------4----|--4-----4-----|--4-----4-----|
--4-----4-----|--4------4----|--4-----4-----|--4-----4-----|
--2-----2-----|--0------0----|--x-----x-----|--x-----x-----|
--------------|--------------|--4-----4-----|--2-----2-----|
Gtr 2:
--------------|--------------|--------------|--------------|
--------------|--------------|--------------|--------------|
--------------|--------------|--------------|--------------|
--------------|--------------|--------------|--------------|
--------------|--------------|--------------|--------------|
--7-----7-----|--5-----5-----|--4-----4-----|--2-----2-2

Oasis - Roll It Over аккорды

Разбор Oasis - Roll It Over на гитаре

1 Звезда2 Звезды3 Звезды4 Звезды5 Звезд (Пока оценок нет)
Загрузка...

Добавить комментарий

Ваш адрес email не будет опубликован. Обязательные поля помечены *