Oasis – Dont Look Back In Anger

шрифт
Print this page
2021-01-29 Oasis – Dont Look Back In Anger
F Fm C
e----------------------------------------------8-------------
B----------------------------------------------8-------------
G----5--7b8r7-7b8r7-7b8r7--5-----------5---8s9----9s8--5-----
D--7--------------------------5---5h7------------------------
A------------------------------------------------------------
E------------------------------------------------------------

F Fm C F
e---------------------------------------------------------------------
B---------------------------------------------------------------------
G-7-5--7b8r7-7b8r7-7b8r7--5----5---5----------------------------------
D---------------------------5--5h7-5-----5---------------------5--7---
A------------------------------------5h7---7p5-3-------3--5s7---------
E-------------------------------------------------1--5----------------

Fm C G
e-------------------------------------8--8h10--8------8------8------8-
B----------------------------8--8--10------------8h10---8h10---8h10---
G-5-----7b9r7p5----5-7p5-7s9------------------------------------------
D---------------h7---------------------------------------------------
A---------------------------------------------------------------------
E---------------------------------------------------------------------

Abdim Am
e------8------8--8h10--8h10--8h10--8h10-/x2/-12----12----12----12-----
B-8h10---8h10----8-----8-----8-----8----/x2/-15b17-15b17-15b17-15b17--
G---------------------------------------------------------------------
D---------------------------------------------------------------------
A---------------------------------------------------------------------
E---------------------------------------------------------------------

G2 F2
e-12----12-----12----12-----------------------------17----------------
B-15b17-15b17--15b17-15b17-15b17r15r13---13-15-15b17~~r15--13-17r15---
G-------------------------------------h14-----------------------------
D---------------------------------------------------------------------
A---------------------------------------------------------------------
E---------------------------------------------------------------------

G2
e--------12-12-------12-12-------12-12-Let Ring-----------------------
B--15b17-------15b17-------15b17--------------------------------------
G---------------------------------------------------------------------
D---------------------------------------------------------------------
A---------------------------------------------------------------------
E---------------------------------------------------------------------

Oasis - Dont Look Back In Anger аккорды

guitar chord Am
guitar chord C
guitar chord F
guitar chord Fm
guitar chord G
1 Звезда2 Звезды3 Звезды4 Звезды5 Звезд (Пока оценок нет)
Загрузка...

Добавить комментарий

Ваш адрес email не будет опубликован. Обязательные поля помечены *