My Chemical Romance – I Don

шрифт
Print this page
2021-03-21 My Chemical Romance – I Don
Intro:
   C                
e|---------------------------------------------------|
B|---5-----5-----5-----5-----5-----5-----5-----5-----|
G|---5-----5-----5-----5-----5-----5-----5-----5-----|
D|------5-----5-----5-----5-----5-----5-----5-----5--|
A|---------------------------------------------------|
E|---------------------------------------------------|

   C                
e|---------------------------------------------------|
B|---5-----5-----5-----5-----6-----6-----5-----5-----|
G|---5-----5-----5-----5-----5-----5-----5-----5-----|
D|------5-----5-----5-----5-----5-----5-----5-----5--|
A|---------------------------------------------------|
E|---------------------------------------------------|

   Am              
e|---------------------------------------------------|
B|---5-----5-----5-----5-----6-----6-----5-----5-----|
G|---5-----5-----5-----5-----5-----5-----5-----5-----|
D|------7-----7-----7-----7-----7-----7-----7-----7--|
A|---------------------------------------------------|
E|---------------------------------------------------|

   G
e|---------------------------------------------------|
B|---3-----3-----3-----3-----3-----3-----3-----3-----|
G|---5-----5-----5-----5-----4-----4-----5-----5-----|
D|------5-----5-----5-----5-----5-----5-----5-----5--|
A|---------------------------------------------------|
E|---------------------------------------------------|


e|------------------------------------------------------|
B|---5-----5-----5-----5-----3-----3--------------------|
G|---------------------------------------5-----4-----4--|
D|------5-----5-----5-----5-----5-----5-----5-----5-----|
A|------------------------------------------------------|
E|------------------------------------------------------|

           C
 Wall when you Go
                      Am
 Don't ever think I'll make you try to stay
              G
 And maybe when you get back
                     C
 I'll be off to find another way

                C
 When after all this time that you still owe
                     Am
 You're still, the good-for-nothing I don't know
                  G
 So take your gloves and get out
 G
 Better get out
         C
 While you can

  F     G
 When you Go
 Esus4    Am  Em    Dm
 Would you even turn to say
        F
 "I don't love you
       G
 Like I did
      C
 Yesterday"

          C
 Sometimes I cry so hard from pleading
                Am
 So sick and tired of all the needless beating
                G
 But baby when they knock you
  G
 Down and out
                 C
 It's where you oughta stay

              C
 And after all the blood that you still owe
              Am
 Another dollar's just another blow
                G
 So fix your eyes and get up
  G
 Better get up
         C
 While you can
 C
 Whoa, whooa

 F       G
 When you Go
 Esus4     Am  Em    Dm
 Would you even turn to say
         F
 "I don't love you
       G
 Like I did
      C
 Yesterday"

 F       G
 When you Go
 Esus4    Am     Em     Dm
 Would you have the guts to say
        F
 "I don't love you
       G
 Like I loved you
        C  Bb Am
 Yester - day"

 G       F   
 I don't love you
        G
 Like I loved you
        C  Bb Am
 Yester - day

 G       F
 I don't love you
        G
 Like I loved you
     C
 Yesterday

My Chemical Romance - I Don аккорды

guitar chord Am
guitar chord C
guitar chord Dm
guitar chord Em
guitar chord F
guitar chord G
guitar chord Esus4
guitar chord Bb

Разбор My Chemical Romance - I Don на гитаре

1 Звезда2 Звезды3 Звезды4 Звезды5 Звезд (Пока оценок нет)
Загрузка...

Добавить комментарий

Ваш адрес email не будет опубликован. Обязательные поля помечены *