Lumen – Змей

2019-10-10 Lumen – Змей
Вступление и первый куплет (флажолеты):
   Em C  D      G          Em C  B7 Em
e|-----------------|      |--------------|
B|-5-----7---7-----| }x3  |-5-----7--5---|
G|----5----5----7--|      |----5---------|

   Em      C          D        G
Давай из бумаги, деревяшек и клея
   Em      C          D   G
Сделаем чудо, сделаем чудо
   Em      C          D     G
Давай соберем воздушного змея
  Em        C        B7    Em
И улетим отсюда, далеко отсюда
 
Проигрыш:
   C      Am           Em      D          
e|------|------------|-------|-----------|
B|------|---8-8-8-7--|-------|-----------|
G|-9----|------------|-7-----|---7-7-9-7-|
D|------|------------|-------|-----------|

   C      Am           Em      Bm          
e|------|------------|-------|------|
B|------|---8-8-8-7--|-------|------|
G|-9----|------------|-7-----|------|
D|------|------------|-------|-9----|

   Em      C          D   G
Ты знаешь, мне очень обидно - 
   Em      C          D       G
Я знаю ответы, две трети ответов
   Em      C          D        G
И если ты скажешь - конечно давай
  Em        C        B7    Em
Другие промолвят: Зачем мне все это?

Проигрыш:
   C      Am           Em      D          
e|------|------------|-------|-----------|
B|------|---8-8-8-7--|-------|-----------|
G|-9----|------------|-7-----|---7-7-9-7-|
D|------|------------|-------|-----------|

   C      Am           Em      Bm          
e|------|------------|-------|------|
B|------|---8-8-8-7--|-------|------|
G|-9----|------------|-7-----|------|
D|------|------------|-------|-9----|

   Em      C          D   G
И все же давай сделаем чудо
   Em      C          D    G
Последнее чудо, нелепое чудо
   Em      C          D     G
Давай на змее улетим в облака
  Em        C        B7    Em
Непонятно куда, непонятно откуда...

   Am                   Bm7                  Am7      D                Em      
e|----------3--0-----------------5--2-----------------------3p2----------------|
B|-------1--1----3-3/5--------3--3----5-5/7--------1------3-----3--------------|
G|-----0----0---------------2----2---------------0------2---------2----------0-|
D|---2------2-------------4------4-------------2------0-------------0------2---|
A|-0--------------------2--------------------0---------------------------2-----|
E|---------------------------------------------------------------------0-------|

   Em              Am7                 Bm7                 Am7      Dsus2
e|-0---2---3---5-----------3--0----------------5--2-----------------------0-|
B|---0---0---0-----------1-1----3-3/5--------3-3----5-5/7--------1------3---|
G|---------------------0---0---------------2---2---------------0------2-----|
D|-------------------2-----2-------------4-----4-------------2------0-------|
A|-----------------0-------------------2-------------------0----------------|
E|-0------------------------------------------------------------------------|

Кода = проигрыш:
:
   C      Am           Em      D          
e|------|------------|-------|-----------|
B|------|---8-8-8-7--|-------|-----------|
G|-9----|------------|-7-----|---7-7-9-7-|
D|------|------------|-------|-----------|

   C      Am           Em      Bm          
e|------|------------|-------|------|
B|------|---8-8-8-7--|-------|------|
G|-9----|------------|-7-----|------|
D|------|------------|-------|-9----|

Lumen - Змей аккорды

guitar chord Am
guitar chord Bm
guitar chord C
guitar chord D
guitar chord Em
guitar chord G
guitar chord Am7
guitar chord B7
guitar chord Bm7
guitar chord Dsus2

Разбор Lumen - Змей на гитаре

1 Звезда2 Звезды3 Звезды4 Звезды5 Звезд (Пока оценок нет)
Загрузка...