Lumen – Назови мне свое имя

шрифт
Print this page
2019-10-11 Lumen – Назови мне свое имя
Вступление:
D||--------7-------------(0)------|-------(0)---------(0)----|
A||-----8-----8-------10------10--|-----7-----7-----7-----7--| x2 
F||--9----------9/11------11------|--8-----8-----8-----8-----|
                                                       
     A#           F             A
  |-------(0)---------(0)----|--------(0)------(0)-------||
  |-----5-----5-----3-----3--|------7--------7--------7--|| x2 
  |--5-----5-----4-----4-----|-4/8--------8--------8-----||
 
    Dm   Em7         A         Dm       Em7            A
Берега укутались снегами, дни ноября сложились в журавля.
       A#      F          A              A#    F        A
Он улетел, исчез за облаками, а утром стали белыми поля.
    Dm   Em7         A         Dm       Em7            A
Пришла зима, все это как всегда, но может неспроста, да может неспроста.
       A#      F          A              A#    F        A
Сегодня первый белый день... Давай начнем все с чистого листа!

Припев:
	   D5             E5       A5                  Db5
	   Назови мне свое имя, я хочу узнать тебя снова
	   D5             E5       A5                  Db5
	   Все по кругу, но все будет иначе, я даю тебе слово
           A#5             F5       A5                 A#-5
	   Назови мне свое имя, я хочу узнать тебя снова
           A#5             F5       A5                 A#-5
	   Все по кругу, но все будет иначе, я даю тебе слово!

Проигрыш = вступление (с вариациями):
D||--------7-------------(0)------|-------(0)---------(0)----|
A||-----8-----8-------10------10--|-----7-----7-----7-----7--| x2 
F||--9----------9/11------11------|--8-----8-----8-----8-----|
                                                       
     A#           F             A
  |-------(0)---------(0)----|--------(0)------(0)-------||
  |-----5-----5-----3-----3--|------7--------7--------7--|| x2 
  |--5-----5-----4-----4-----|-4/8--------8--------8-----||

    Dm   Em7         A         Dm  Em7  A
Пустые дни различны лишь календарями, 
       A#      F          A     A# F A
а в остальном - как капельки воды,
    Dm   Em7         A         Dm  Em7 A
И разбежаться - самый легкий выбор, 
       A#      F          A     A# F A
подальше с глаз, и все расстаяло, как дым...

Припев:
	   D5             E5       A5                  Db5
	   Назови мне свое имя, я хочу узнать тебя снова
	   D5             E5       A5                  Db5
	   Все по кругу, но все будет иначе, я даю тебе слово
           A#5             F5       A5                 A#-5
	   Назови мне свое имя, я хочу узнать тебя снова
           A#5             F5       A5                 A#-5
	   Все по кругу, но все будет иначе, я даю тебе слово!

Перебор в последнем куплете:
   A#                 F                 E7                Asus4   A
D|-----0-------0---|-----0-------0---|-----0-------0---|-----0-------0---|
A|---5---5---5---5-|---3---3---3---3-|---2---2---2---2-|---4---4---4---4-|
F|-5-------5-------|-4-------4-------|-3-------3-------|-4-------4-------|
                                                                                                               
   A#                 F                 E7                Asus4   A
 |-----0-------0---|-----0-------0---|-----0-------0---|-----0---7---------|
 |---5---5---5---5-|---3---3---3---3-|---2---2---2---2-|---7---7---10---10-|
 |-5-------5-------|-4-------4-------|-3-------3-------|-8------------8----|

  A#                         F
  Я чего-то не понимаю, скорее всего, не понимаю всего,
             E7                                 Asus4            A
  Но то, что мы до сих пор не убили друг друга похоже на доброе волшебство.
  A#                         F
  Вчера мы припасли друг для друга гранаты, и завтра могли уже просто не встать,
             E7                                 Asus4            A
  Но сегодня такой светлый день, давай все начнем с пустого листа...

Припев:
	   D5             E5       A5                  Db5
	   Назови мне свое имя, я хочу узнать тебя снова
	   D5             E5       A5                  Db5
	   Все по кругу, но все будет иначе, я даю тебе слово
           A#5             F5       A5                 A#-5
	   Назови мне свое имя, я хочу узнать тебя снова
           A#5             F5       A5                 A#-5
	   Все по кругу, но все будет иначе, я даю тебе слово!

Кода: D5 | E5 | F5 | A5
      D5 | E5 | A5 | A5
      G5 | F5 | E5 | E5
      G5 | F5 | A5 | A5 | D5      

Lumen - Назови мне свое имя аккорды

guitar chord A
guitar chord Dm
guitar chord Em7
guitar chord F
guitar chord E7
guitar chord Asus4
guitar chord E5
guitar chord A5
guitar chord D5
guitar chord A#
guitar chord Db5

Разбор Lumen - Назови мне свое имя на гитаре

1 Звезда2 Звезды3 Звезды4 Звезды5 Звезд (Пока оценок нет)
Загрузка...

Добавить комментарий

Ваш адрес email не будет опубликован. Обязательные поля помечены *