Ленинград – Дороги

2019-11-12 Ленинград – Дороги
Проигрыш перед каждым куплетом:
     E  Am              
E||-----0--------|
B||-----1--------|
G||--1--2--------|
D||--2--2--------|
A||--2--0--------|
E||--0-----------|

       Am                    Dm
Я всегда уходил, чтоб не вернуться,
       E                     Am
Я всегда уходил, чтоб навсегда.
       Am                    Dm
Иногда так хотелось оглянуться,
       E                  Am
Иногда - это только иногда!!!

Припев: x2
   Am          Dm
Дороги мои, дороги,           
     E              Am         
Выносили ноги, помогали боги.  

Проигрыш перед каждым куплетом:
     E  Am              
E||-----0--------|
B||-----1--------|
G||--1--2--------|
D||--2--2--------|
A||--2--0--------|
E||--0-----------|

       Am           Dm
Иногда я ходил в никуда,
       E                Am
Никогда не ходил по прямой,
       Am                Dm
А в пути мне светила звезда,
       E                 Am
Выручал же всегда ангел мой...

Припев: x2
   Am          Dm
Дороги мои, дороги,           
     E              Am         
Выносили ноги, помогали боги.  

Проигрыш перед каждым куплетом:
     E  Am              
E||-----0--------|
B||-----1--------|
G||--1--2--------|
D||--2--2--------|
A||--2--0--------|
E||--0-----------|

       Am            Dm
И любили меня, и сдавали,
       E             Am
И старуха махала косой,
       Am             Dm
И в залетную мне не давали,
       E                 Am
А в финале мой путь стал взлетной полосой.

Припев: x2
   Am          Dm
Дороги мои, дороги,           
     E              Am         
Выносили ноги, помогали боги.  

Рифф после припева перед куплетом:
E||-----------------------|------------------|----------------------------|
B||--6----6-4--------6----|--4--6----7----7--|--6------------------4----6-|
G||-----------6-3---------|------------------|----8-6-5----8----6---------|
D||-----------------------|------------------|----------------------------|
A||-----------------------|------------------|----------------------------|
E||-----------------------|------------------|----------------------------|

Соло в конце песни:                                                         
e||--5-5-5-5~---------7~-|--8/---12--|--5/---8----7/---10----|--7----7----7----7----|--8----7----5----||
B||----------------------|-----------|-----------------------|----------------------|-----------------||
G||----------------------|-----------|-----------------------|----------------------|-----------------||
D||----------------------|-----------|-----------------------|----------------------|-----------------||
A||----------------------|-----------|-----------------------|----------------------|-----------------||
E||----------------------|-----------|-----------------------|----------------------|-----------------||

Ленинград - Дороги аккорды

guitar chord Am
guitar chord Dm
guitar chord E

Разбор Ленинград - Дороги на гитаре

1 Звезда2 Звезды3 Звезды4 Звезды5 Звезд (Пока оценок нет)
Загрузка...