Led Zeppelin – Stairway To Heaven (Intro)

шрифт
Print this page
2021-02-18 Led Zeppelin – Stairway To Heaven (Intro)
Intro:
 Am       G#+     C        D        Fmaj7         G  Am  
E|-------5-7-----7-|8-----8-5-------|0-------0----|------------| 
B|-----5-----5-----|----5-----5---5-|--2---2---1--|------------| 
G|---5---------5---|--5---------5---|----1-------2|0-2-2-------| 
D|-7-------6-------|5-------4-------|3------------|------------| 
A|-----------------|----------------|-------------|2-0-0-0-8-7-| 
E|-----------------|----------------|-------------|------------| 
(with flute...) 

 Am       G#+      C       D        Fmaj7           G  Am  
E|------5-7-----7-|8-----8-5-------|------0--------|-----------| 
B|----5-----5-----|----5-----5---5-|----1-----1----|-----------| 
G|--5---------5---|--5---------5---|--2---------2--|0-2-2------| 
D|7-------6-------|5-------4-------|3--------------|-----------| 
A|----------------|----------------|---------------|2-0-0--0-2-| 
E|----------------|----------------|---------------|-----------| 
 
End Version 2: 
 C        D        Fmaj7   Am      C        G      p  D  
E|-0-----0-2-----2|0-----0---------|------0-3-----3|322-2-----|| 
B|---1-------3----|--1-----1-------|----1-----0----|----------|| 
G|-----0-------2--|----2-----2-----|--0---------0--|2---------|| 
D|---------0------|3---------------|---------------|----0-----|| 
A|-3--------------|--------0---0-2-|3--------------|------0-2-|| 
E|----------------|----------------|--------3------|----------|| 
 
End Version 1:
 C        D        Fmaj7   Am       C       D        Fmaj7  
E|-0---3-0-3-2-----|0-----0---------|--------------2-|----0---|| 
B|---1---------3---|--1-----1-------|------1-----3---|----1---|| 
G|---------------2-|----2-----2-----|----0-----2-----|----2---|| 
D|---------0-------|3---------------|--2-----0-------|2/3-----|| 
A|-3---------------|--------0---0-2-|3---------------|--------|| 
E|-----------------|----------------|----------------|--------||

Led Zeppelin - Stairway To Heaven (Intro) аккорды

guitar chord Am
guitar chord C
guitar chord D
guitar chord Fmaj7

Разбор Led Zeppelin - Stairway To Heaven (Intro) на гитаре

1 Звезда2 Звезды3 Звезды4 Звезды5 Звезд (Пока оценок нет)
Загрузка...

Добавить комментарий

Ваш адрес email не будет опубликован. Обязательные поля помечены *