Led Zeppelin – Kashmir

шрифт
Print this page
2021-04-02 Led Zeppelin – Kashmir
Basic song riff:
------------------------------------------------------------------------
------------------------------------------------------------------------
4-4-4---4-4-4---5-5-5---5-5-5---6-6-6---6-6-6---7-7-7---7-7-7---9-9-9---
------------------------------------------------------------------------
2-2-2---2-2-2---3-3-3---3-3-3---4-4-4---4-4-4---5-5-5---5-5-5---7-7-7---
--------------0---------------0---------------0---------------0---------

Oh let the sun beat down upon my face, stars fill my dream
I am a traveler of both time and space, to be where I have been
secret elders of a gentle race, swierl but seldom seen
top of days for which they sit and wait, all will be revealed
 
Power Fill:
------------------ 
9--7--7--5--7--5--
9--8--7--6--7--6--
9--9--7--7--7--7--
7--7--5--5--5--5--
0--0--0--0--0--0--
 
Basic song riff:
------------------------------------------------------------------------
------------------------------------------------------------------------
4-4-4---4-4-4---5-5-5---5-5-5---6-6-6---6-6-6---7-7-7---7-7-7---9-9-9---
------------------------------------------------------------------------
2-2-2---2-2-2---3-3-3---3-3-3---4-4-4---4-4-4---5-5-5---5-5-5---7-7-7---
--------------0---------------0---------------0---------------0---------

offer song from tongues of lilding grace, sounds caress my ear
not a word I heard could I relate, the story was quite clear
WHOOA  OH,  WHOOA OH
 
Power Fill: x2
------------------ 
9--7--7--5--7--5--
9--8--7--6--7--6--
9--9--7--7--7--7--
7--7--5--5--5--5--
0--0--0--0--0--0--
 
Am     
OOOH baby I`ve been lie`n
Am     
OOOH yea, baby there aint no deny`n
Am     
OOOH yea, I`ve been fly`n
Am     
mama aint no deny`n, no deny`n

Power Fill: x2
------------------ 
9--7--7--5--7--5--
9--8--7--6--7--6--
9--9--7--7--7--7--
7--7--5--5--5--5--
0--0--0--0--0--0--

Am                 B      Am                   B
all I see turns to brown, as the sun burns the ground
Am                     B     Am                  B
and my eye filled with sand, as I scan this racy land
Am                                     B
try`n to find, try`n to find were I`ve been
 
Basic song riff:
------------------------------------------------------------------------
------------------------------------------------------------------------
4-4-4---4-4-4---5-5-5---5-5-5---6-6-6---6-6-6---7-7-7---7-7-7---9-9-9---
------------------------------------------------------------------------
2-2-2---2-2-2---3-3-3---3-3-3---4-4-4---4-4-4---5-5-5---5-5-5---7-7-7---
--------------0---------------0---------------0---------------0---------       
AHHHH
 
OH I love the storm that leaves no trace, like thoughts inside a dream
he is the band that led me to that place, yellow desert screams
like shangrela beneath the summer moon, I will return to err
as the death that floats behind you, were moving through kashmir

Power Fill: 
------------------ 
9--7--7--5--7--5--
9--8--7--6--7--6--
9--9--7--7--7--7--
7--7--5--5--5--5--
0--0--0--0--0--0--
       
Basic song riff:
------------------------------------------------------------------------
------------------------------------------------------------------------
4-4-4---4-4-4---5-5-5---5-5-5---6-6-6---6-6-6---7-7-7---7-7-7---9-9-9---
------------------------------------------------------------------------
2-2-2---2-2-2---3-3-3---3-3-3---4-4-4---4-4-4---5-5-5---5-5-5---7-7-7---
--------------0---------------0---------------0---------------0---------       

OH father of the four winds fill my sails, cross the sea of errs
with no provisions but an open face, norm`d straits of fear
WHOOA  OH,  WHOOA OH

Power Fill: x2
------------------ 
9--7--7--5--7--5--
9--8--7--6--7--6--
9--9--7--7--7--7--
7--7--5--5--5--5--
0--0--0--0--0--0--
 
Am                          B
When I want, when I`m on my way, yea
Am                                    B
When I feel, when I think my brain to stay
Am         B  Am                B
...OOOH yea  OOOH yea when I`m down
Am                            B
OOOH yea  OOOH yea when I`m down
Am                                     B
OH my baby, OH my baby let me take you there
Am              B
let me take you there....
_________________________________________  

Main Riff 1:  
D|---------------------------------------------------------
A|---------------------------------------------------------
G|--2---2---2------2---2---2------3---3---3------3---3---3-
D|--0---0---0------0---0---0------0---0---0------0---0---0-
A|--5---5---5------5---5---5------5---5---5------5---5---5-
D|---------------------------------------------------------
  
D|---------------------------------------------------------
A|---------------------------------------------------------
G|--4---4---4------4---4---4------5---5---5------5---5---5-
D|--0---0---0------0---0---0------0---0---0------0---0---0-
A|--5---5---5------5---5---5------5---5---5------5---5---5-
D|---------------------------------------------------------
  
D|---------------------------------------------------
A|---------------------------------------------------
G|--7---7---7------2---2---2------2---2---2----------
D|--0---0---0------0---0---0------0---0---0---repeat-
A|--5---5---5------5---5---5------5---5---5----------
D|---------------------------------------------------
  
Riff 2:
D|--12---12---10---10----7----7----5----5----3----3----------
A|---0----0----0----0----0----0----0----0----0----0----------
G|--12---11---10----9----7----6----5----4----3---2-----------
D|---0----0----0----0----0----0----0----0----0----0----3-2-0-
A|-----------------------------------------------------------
D|-----------------------------------------------------------
  
D|--12---12---10---10----7----7----5----5----3----3----------
A|---0----0----0----0----0----0----0----0----0---0-----------
G|--12---11---10----9----7----6----5----4----3---2-----------
D|---0----0----0----0----0----0----0----0----0----0----3-2-0-
A|-----------------------------------------------------------
D|-----------------------------------------------------------
  
When you go back to the Main Riff start here and then proceed as usual.
D|---------------------------------------------------------
A|---------------------------------------------------------
G|--3---3---3------3---3---3------4---4---4------4---4---4-
D|--0---0---0------0---0---0------0---0---0------0---0---0-
A|--5---5---5------5---5---5------5---5---5------5---5---5-
D|---------------------------------------------------------
  
D|-----------------------------------------------------------------
A|-----------------------------------------------------------------
G|--5---5---5------5---5---5------7---7---7------2---2---2---------
D|--0---0---0------0---0---0------0---0---0------0---0---0----etc.-
A|--5---5---5------5---5---5------5---5---5------5---5---5---------
D|-----------------------------------------------------------------
  
Interlude 1-After Riff 2:  
D|--12---12---10---10----7----7----5----5----3----3-----------------
A|---0----0----0----0----0----0----0----0----0---0------------------
G|--12---11---10----9----7----6----5----4----3---2------------------
D|---0----0----0----0----0----0----0----0----0----0----3-2-0------0-
A|-----------------------------------------------------------0-2----
D|------------------------------------------------------------------
  
D|--------------------------------------------------------------------
A|--------------------------------------------------------------------
G|--------------------------------------------------------------------
D|--2------2---2---11-2-----------2------2---2---11-2-----3-2-0-----0-
A|--0------0---0---12-0-----------0------0---0---12-0-----------0-2---
D|--------------------------------------------------------------------
  
D|-------------------------------------------------------------------
A|-------------------------------------------------------------------
G|-------------------------------------------------------------------
D|--2------2---2---11-2-----------2------2---2---11-2----3-2-0-----0-
A|--0------0---0---12-0-----------0------0---0---12-0-----------0-2--
D|-------------------------------------------------------------------
  
Repeat
Back to Riff 2
  
Interlude 2-After Riff 2
Interlude 2 is two chords that are alternated in this section of the song.
  
D|--12---12---10---10----7----7----5----5----3----3----------
A|---0----0----0----0----0----0----0----0----0---0-----------
G|--12---11---10----9----7----6----5----4----3---2-----------
D|---0----0----0----0----0----0----0----0----0----0----3-2-0-
A|-----------------------------------------------------------
D|-----------------------------------------------------------
  
D|--5---------------------------7--
A|--5---------------------------7--
G|--7---------------------------9--
D|--5---------------------------7--
A|--5---------------------------7--
D|--5---------------------------7--
  
The rest of the song alternates between the Main Riff and Riff 2.
End on Interlude 2.
  
If you happen to be playing along with the Page and Plant: 
No Quarter album, here is the riff that comes after the violin solo.  
D|---------------------------
A|---------------------------
G|---------------------------
D|---------------------------
A|--12-11-12-14-12-11-12--9--
D|---0--0--0--0--0--0---0--0-

Led Zeppelin - Kashmir аккорды

guitar chord A
guitar chord Am
guitar chord B
guitar chord H

Разбор Led Zeppelin - Kashmir на гитаре

1 Звезда2 Звезды3 Звезды4 Звезды5 Звезд (Пока оценок нет)
Загрузка...

Добавить комментарий

Ваш адрес email не будет опубликован. Обязательные поля помечены *