Дельфин – Вера

шрифт
Print this page
2020-12-09 Дельфин – Вера
BASS

Intro:
e|-----------------------------------|
A|-----11-----10-----9-----8-----7---|
D|-----------------------------------|
G|-0h9----0h8----0h7---0h6---0h5---4-|

Main Riff:
F#                E
|-----------------------------------
|-----------------------------------
|-9-9-9--9-9999999-7-7-7--7-7777777- 
|-----------------------------------

B
------------------------------------|
------------------------------------|
------------------------------------|
-7-7-7--7-7777777--7-7-7--7-7777777-|

Vearse 1:
|-------------------------|----------
|---------9--------6-6-6--|--------11
|-------------------------|----------
|-/9b--7---9----4---------|/9--0h9---
        ^ *      ^ * * *
----------------------------|
-----10-----9-----8-----7---|
----------------------------|
-0h8----0h7---0h6---0h5---4-|

Vearse 2:
|-----------------------------------------|
||-------------------9--------6-6-6-------|
|-----------------------------------------|
|-/9b--7---9----4---------/9--8-7-6-5-4-3-|
        ^ *      ^ * * *
Bridge:
F#               E
|-------------------------------
|-8-8-8--11-9-8--9-9-9---9-6-6/-
|-9-9-9--9--9-9--7-7-7--7--7-7/-
|-------------------------------

B
--------------------------------------|
/13-13-13--13-16-16--13--13--13-16-16-|
/14-14-14--14-14-14--14--14--14-14-14-|
--------------------------------------|

Bridge 2 :
Что ты от него хочешь....
|-----------------------|
|-----------------------|
|-----------------------|
|-15~---15~---15~---15~-|

____________________________________
GUITAR

Solo:
e|------------------|
B|-7-9-7-5-5-0-0-12-|
G|------------------|
D|------------------|
A|------------------|
E|------------------|

Solo 2:
|-14-16-14-12-12----19-|
|----------------12----|
|----------------------|
|----------------------|
|----------------------|

Bridge:
Что ты от него хочешь...
|------------------|
|------------------|
|-5--5--5-5-5-5--5-|
|------------------|
|-3--3--3-3-3-3--3-|
|------------------|
        
Solo 3:                      End:
|-14-16-14-12-12----14-16-| |-14-|
|----------------12-------| |----|
|-------------------------| |----|
|-------------------------| |----| 
|-------------------------| |----| 
|-------------------------| |----|

Дельфин - Вера аккорды

guitar chord B
guitar chord E
guitar chord F#

Разбор Дельфин - Вера на гитаре

1 Звезда2 Звезды3 Звезды4 Звезды5 Звезд (Пока оценок нет)
Загрузка...

Добавить комментарий

Ваш адрес email не будет опубликован. Обязательные поля помечены *