Дельфин – Окно

шрифт
Print this page
2021-02-04 Дельфин – Окно
Вступление: 
G||---2-3-|-------3-|---2-3-|-----3----| 
D||--0----|----0-3--|--0----|--1-3-3-1-|  
A||-------|-1-3-----|-------|----------| x8 
E||-3-----|---------|-3-----|-4--------|

Am               F
Она живет в ноябре,
C                E
С выходящим на север окном.
Am           F
В комнате города,
C               E
Рвущего стены дождем.

Am               F
Она мечтает увидеть
C                E
Бушующий пеной залив,
Am               F
Там, где волны ломают
C                E
Усталый коралловый риф...

Проигрыш:
G||---2-3-|-------3-|---2-3-|-----3----| 
D||--0----|----0-3--|--0----|--1-3-3-1-|  
A||-------|-1-3-----|-------|----------| x8 
E||-3-----|---------|-3-----|-4--------|

Am           F
Она так одинока
C                E
В этом странном квартале мечты,
Am               F
Где таких, как она,
C                E
Принимают пустые углы,

Am               F
Где на завтрак едят
C                E
Кипяченые запахи снов,
Am               F
Где живут продавцы
C                E
Нарисованных трав и цветов.

Проигрыш:
G||---2-3-|-------3-|---2-3-|-----3----| 
D||--0----|----0-3--|--0----|--1-3-3-1-|  
A||-------|-1-3-----|-------|----------| x8 
E||-3-----|---------|-3-----|-4--------|

Соло: x2
e||-6-8-6----|-5-6-5----|-3-5-3----|-1-3-1---------| 
B||--------7-|--------3-|--------3-|------1--3-3-3-| x2 
G||----------|----------|----------|---------------| 

e||-------------|-1-5--1-1-3-|--------------|--------------|
B||-----1-3-1-3-|------------|-1-3-1--1-1-3-|-1-1-1--3-3-3-|
G||--0-3-----3--|------------|----3---------|3-------------|
D||-3-----------|------------|--------------|--------------|

e||-6-8-6---|-5-6-5---|-3-5-3---|-10---8-----|-----|
B||-------7-|-------3-|-------3-|------------|-----|
G||---------|---------|---------|----------7-|-(5)-|

Кода:
G||---2-3-|-------3-|---2-3-|-----3----| 
D||--0----|----0-3--|--0----|--1-3-3-1-|  
A||-------|-1-3-----|-------|----------| x8 
E||-3-----|---------|-3-----|-4--------|

Дельфин - Окно аккорды

guitar chord Am
guitar chord C
guitar chord E
guitar chord F

Разбор Дельфин - Окно на гитаре

1 Звезда2 Звезды3 Звезды4 Звезды5 Звезд (Пока оценок нет)
Загрузка...

Добавить комментарий

Ваш адрес email не будет опубликован. Обязательные поля помечены *