Чиж – Глазами и душой

2019-06-12 Чиж – Глазами и душой
e|-7-6-7--5-4-5--3-2-3--|-2-0---------3-0-------|------2-0--------------|
B|----------------------|------3-1-0-------0-1--|-2--------4------------|
G|----------------------|-----------------------|---3-------------------|
D|----------------------|-----------------------|-----------------------|
A|----------------------|-----------------------|-----------------------|
E|----------------------|-----------------------|-----------------------|
 
e|-7-6-7--5-4-5--3-2-3--|-2-0-----------3-0-----|-----------------------|
B|----------------------|-------3-1-0-------0---|--2---4---5------------|
G|----------------------|-----------------------|-----------------------|
D|----------------------|-----------------------|-----------------------|
A|----------------------|-----------------------|-----------------------|
E|----------------------|-----------------------|-----------------------|
 
 Em       B7    Em    C    Am6  B7    Em B7
 Успокой меня глазами, успокой меня душой
      Em     D7     G          A7  D7    G
 И босыми встань ногами на сердечную мозоль
          Dm6      E7      Am      D7   D7    G
 Боль доставь мне наслажденья исцарапай спину мне
 E7    Am      F#m-5 Em C         Am      B7    C C/B C/A#
 Мне явись как исцеленье, светом будь в моем окне
         F#7     B7    Em
 Светом будь в моем окне
 
 Em       B7    Em    C    Am6  B7    Em B7
 Обними меня глазами, обними меня душой
      Em     D7     G          A7  D7    G
 Как пред строгими богами я перед тобой одной
          Dm6      E7      Am      D7   D7  G
 Обними меня покрепче да прижми к своей груди
 E7    Am      F#m-5 Em C         Am      B7 C C/B C/A#
 Мне так будет много легче позабыть и перейти
         F#7     B7 Em
 Позабыть и перейти
 
 Em       B7    Em    C    Am6  B7    Em B7
 Поцелуй меня глазами, поцелуй меня душой
      Em     D7     G          A7  D7    G
 Оборвать все нити сразу легче, нежели по одной
          Dm6      E7      Am      D7   D7    G
 Стебель жизни очень тонок, а не губи его шаля
 E7    Am      F#m-5 Em C         Am      B7  C C/B C/A#
 Где-то там не спит ребенок так похожий на меня
         F#7     B7 Em
 Так похожий на меня
 
F#m       C#7    F#m    D    Bm6  C#7    F#m C#7
 Успокой меня глазами, успокой меня душой
      F#m     E7     A          B7  E7    A
 И босыми встань ногами на сердечную мозоль
          Em6      F#7      Bm      E7   E7 A
 Для меня ты ангел божий, без тебя - такая муть
 F#7    Bm      G#m-5 F#m D         Bm    C#7 D D/C# D/C
 Мне скажи ты мой хороший и еще чего-нибудь
 F#7    Bm      G#m-5 F#m D         Bm    C#7 D D/C# D/C B7
 Мне скажи ты мой хороший и еще чего-нибудь 

Проигрыш:
e|-7-6-7--5-4-5--3-2-3--|-2-0---------3-0-------|------2-0--------------|
B|----------------------|------3-1-0-------0-1--|-2--------4------------|
G|----------------------|-----------------------|---3-------------------|
D|----------------------|-----------------------|-----------------------|
A|----------------------|-----------------------|-----------------------|
E|----------------------|-----------------------|-----------------------|
 
e|-7-6-7--5-4-5--3-2-3--|-2-0-----------3-0-----|-----------------------|
B|----------------------|-------3-1-0-------0---|--2---4---5------------|
G|----------------------|-----------------------|-----------------------|
D|----------------------|-----------------------|-----------------------|
A|----------------------|-----------------------|-----------------------|
E|----------------------|-----------------------|-----------------------|

Чиж - Глазами и душой аккорды

guitar chord Am
guitar chord C
guitar chord D
guitar chord Em
guitar chord G
guitar chord E7
guitar chord A7
guitar chord D7
guitar chord B7
guitar chord Dm6
guitar chord F#7
guitar chord F#m
guitar chord C#7
guitar chord Am6
1 Звезда2 Звезды3 Звезды4 Звезды5 Звезд (Пока оценок нет)
Загрузка...