Bon Jovi – Its My Life

шрифт
Print this page
2021-02-22 Bon Jovi – Its My Life
Intro / Main Riff:
E|-------------4-3-
B|-4--4------4-----
G|-5--5----5-------
D|-5--5--5---------
A|-3--3------------
E|----------------- 

Verse:
Main Riff
This ain't a song for the broken-hearted
Main Riff
No silent prayer for the faith-departed
C C                         C C
I ain't gonna be just a face in the crowd
C
You're gonna hear my voice
F
When I shout it out loud

Chorus:
         C
Its My Life, 
     Ab         
Its Now Or Never, 
   Eb            D/Eb
and I ain't gonna live forever
C              Ab         Bb     B
I just want to live while I'm alive 
         C
(It's my life)
     Ab         
My heart is like an open highway
   Eb            D/Eb
Like Frankie said I did it my way
C              Ab         Bb     B
I just want to live while I'm alive
      C
It's my life

Main Riff:
E|-------------4-3-
B|-4--4------4-----
G|-5--5----5-------
D|-5--5--5---------
A|-3--3------------
E|----------------- 

Main Riff
This is for the ones who stood their ground
Main Riff
It's for Tommy and Gina who never backed down
C C                         C C
Tomorrow's getting harder, make no mistake
C
Luck ain't enough
F
You've got to make your own breaks

Chorus:
         C
Its My Life, 
     Ab         
Its Now Or Never, 
   Eb            D/Eb
and I ain't gonna live forever
C              Ab         Bb     B
I just want to live while I'm alive 
         C
(It's my life)
     Ab         
My heart is like an open highway
   Eb            D/Eb
Like Frankie said I did it my way
C              Ab         Bb     B
I just want to live while I'm alive
      C
It's my life

Bridge:
        PM PM
E|--------------------------------------------------------------- 
B|--------------------------------------------------------------- 
G|---------------------------------------------------------------
D|-6--6------6-6------6-----6-----8-----8-----8-----8-----8------ 
A|-6--6------6-6------6-----6-----8-----8-----8-----8-----8------ 
E|-4--4--4-4-4-4--4-4-4-4-4-4-4-4-6-6-6-6-6-6-6-6-6-6-6-6-6-6-6--

E|-----------------------------------------------
B|-----------------------------------------------
G|-----------------------------------------------
D|-10-10-----10-10--------10-10-------10-10------
A|-10-10-----10-10--------10-10-------10-10------
E|-8--8--8-8-8--8--8-8--8--8--8-8--8--8--8---8-8- 

E|---------------------------------
B|---------------------------------
G|---------------------------------
D|-3-3-----3-3-----3-3-----3-3----- 
A|-3-3-----3-3-----3-3-----3-3-----
E|-1-1-1-1-1-1-1-1-1-1-1-1-1-1-1-1-

Solo: I improvise, but its built around the penatonic scale in the key of C
E|--------------------------------8--11--
B|--------------------------8--10--------   
G|---------------------8-10--------------  
D|---------------8--10------------------- 
A|--------8--10--------------------------
E|-8--11---------------------------------

But there is a little bit that goes:
E|---------------------------
B|---------------------------
G|-10---10-10-10-10-10-10-8--
D|---------------------------
A|---------------------------
E----------------------------

Final Verse:
C
Better stand tall when they're calling you out
C
Don't bend, don't break, baby, don't back down

Chorus:
         C
Its My Life, 
     Ab         
Its Now Or Never, 
   Eb            D/Eb
and I ain't gonna live forever
C              Ab         Bb     B
I just want to live while I'm alive 
         C
(It's my life)
     Ab         
My heart is like an open highway
   Eb            D/Eb
Like Frankie said I did it my way
C              Ab         Bb     B
I just want to live while I'm alive
      C
It's my life

Bon Jovi - Its My Life аккорды

guitar chord B
guitar chord C
guitar chord F
guitar chord Ab
guitar chord Eb
guitar chord Bb
1 Звезда2 Звезды3 Звезды4 Звезды5 Звезд (Пока оценок нет)
Загрузка...

Добавить комментарий

Ваш адрес email не будет опубликован. Обязательные поля помечены *