Би-2 – Мяу кисс ми

шрифт
Print this page
2019-05-31 Би-2 – Мяу кисс ми
Вступление: x2
   Am            E             F                  E
e|-------------|-------------|-----------------|-----|
B|-5-----------|-3-----------|-1---------------|-----|
G|---5--2------|---4--1------|---2-------------|-----| 
D|---------3-2-|---------3-2-|------3--3-2---3-|--2--| 
A|-------------|-------------|-----------------|-----|
E|-------------|-------------|-----------------|-----|

Am                 E                   F  
Люби меня как я тебя и может полные края
                     E
Я расплескаю все до капли
Am                 E                   F  
Вода чернеет у моста и за трубой два хвоста
                     E
Берут за горло чьи-то лапы

	     Am                    E     
	Мяу кисс ми ненавистная любовь   G|-8-9-8--4-| (и далее)
	     F                     E  
	Я зализывать твои не буду раны
	     Am                    E     
	Мяу кисс ми свои мысли за кого
	     F                     E  
	Я гореть и плавить свое сердце стану

Am                 E                   F  
Навылет очередь она так близко сядет от меня
                     E
И разорвет наверно в клочья
Am                 E                   F  
И все что дальше только тень и невозможен каждый день
                     E
Для тех кому не спится ночью

	     Am                    E     
	Мяу кисс ми ненавистная любовь   G|-8-9-8--4-| (и далее)
	     F                     E  
	Я зализывать твои не буду раны
	     Am                    E     
	Мяу кисс ми свои мысли за кого
	     F                     E  
	Я гореть и плавить свое сердце стану

Проигрыш: x2
   Am            E             F                  E
e|-------------|-------------|-----------------|-----|
B|-5-----------|-3-----------|-1---------------|-----|
G|---5--2------|---4--1------|---2-------------|-----| 
D|---------3-2-|---------3-2-|------3--3-2---3-|--2--| 
A|-------------|-------------|-----------------|-----|
E|-------------|-------------|-----------------|-----|

	     Am                    E     
	Мяу кисс ми ненавистная любовь   G|-8-9-8--4-| (и далее)
	     F                     E  
	Я зализывать твои не буду раны
	     Am                    E     
	Мяу кисс ми свои мысли за кого
	     F                     E  
	Я гореть и плавить свое сердце стану

Кода: x2
       Am                  E       F                   E
e|-----5--------5--------|---|-----5--------5--------|---|
B|-4-5---5--4-5---5--4-5-|---|-4-5---5--4-5---5--4-5-|---| 
G|-----------------------|-4-|-----------------------|-4-|

Би-2 - Мяу кисс ми аккорды

guitar chord Am
guitar chord E
guitar chord F

Разбор Би-2 - Мяу кисс ми на гитаре

1 Звезда2 Звезды3 Звезды4 Звезды5 Звезд (Пока оценок нет)
Загрузка...

Добавить комментарий

Ваш адрес email не будет опубликован. Обязательные поля помечены *