Би-2 – Кукушка

шрифт
Print this page
2019-05-30 Би-2 – Кукушка
Intro:
e||---------------------------------------|
b||-0--3-7-5-7-5-7-10-5--3-2--2/3-2-0-3-0-|
g||---------------------------------------|
d||---------------------------------------|
a||---------------------------------------|
e||---------------------------------------|

Bm
Песен еще ненаписанных, сколько?
         A Em Bm 
Скажи, кукушка, пропой.
   Bm 
В городе мне жить или на выселках,
                             A Em Bm 
Камнем лежать или гореть звездой? Звездой.

Chorus: (лучше квинтами)
  A G Bm
   Солнце мое - взгляни на меня,
      
e||---------------------------|
b||---------------------------|
g||---------------------------| басы
d||---------4-5-4-2-0---------|
a||---2-2-2-------------------|
e||---------------------------|
               ИЛИ 
e||---------3-2-0-------------|
b||---0-0-0-------3-(2)-------|
g||---------------------------| соляк 
d||---------------------------|
a||---------------------------|
e||---------------------------|

      A G Bm
        Моя ладонь превратилась в кулак, 
      A G Bm 
        И если есть порох - дай огня.
      A G Bm D Em F#m
               Вот так...
         
Bm
Кто пойдет по следу одинокому?
         A Em Bm 
Сильные да смелые головы сложили в поле, в бою.
   Bm 
Мало кто остался в светлой памяти,
                             A Em Bm 
В трезвом уме да с твердой рукой в строю, в строю.
                          
Bm              
Где же ты теперь, воля вольная?
         A Em Bm 
С кем же ты сейчас ласковый рассвет встречаешь? Ответь.
Bm
Хорошо с тобой, да плохо без тебя,
                             A Em Bm 
Голову да плечи терпеливые под плеть, под плеть

Chorus: (лучше квинтами)
  A G Bm
   Солнце мое - взгляни на меня,
      
e||---------------------------|
b||---------------------------|
g||---------------------------| басы
d||---------4-5-4-2-0---------|
a||---2-2-2-------------------|
e||---------------------------|
               ИЛИ 
e||---------3-2-0-------------|
b||---0-0-0-------3-(2)-------|
g||---------------------------| соляк 
d||---------------------------|
a||---------------------------|
e||---------------------------|

      A G Bm
        Моя ладонь превратилась в кулак, 
      A G Bm 
        И если есть порох - дай огня.
      A G Bm D Em F#m
               Вот так...

Би-2 - Кукушка аккорды

guitar chord A
guitar chord Bm
guitar chord D
guitar chord Em
guitar chord G
guitar chord F#m

Разбор Би-2 - Кукушка на гитаре

1 Звезда2 Звезды3 Звезды4 Звезды5 Звезд (Пока оценок нет)
Загрузка...

Добавить комментарий

Ваш адрес email не будет опубликован. Обязательные поля помечены *