Аквариум – Пока не начался Джаз

шрифт
Print this page
guitar chord A
guitar chord Am
guitar chord C
guitar chord Cm
guitar chord D
guitar chord G
2019-08-15 Аквариум – Пока не начался Джаз
Intro: C - G - C - G - C - G - A - Cm(III) - G(III)

Куплет:
1-------7----------------------------
2------------------7--8-----3-----5--
3------------------------------------
4-------5----------------------------
5------------------5--7-----2-----3--
6------------------------------------    G
В трам--вайном де--по пятые сутки бал----ox

1---7--------------------------------
2-----------7------8--------3-----5--
3------------------------------------
4---5--------------------------------
5-----------5------7--------2-----3--
6------------------------------------    
Из кухонных кранов бьет веселящий газ.

D                G        C     C/B         Am
Пенсионеры в трамваях говорят о звездной войне.
   C    G   C       G
Держи меня, будь со мной.
   C    G     A     Cm(III) G
Храни меня, пока не начался джаз.

1-------7----------------------------
2------------------7--8-----3-----5--
3------------------------------------
4-------5----------------------------
5------------------5--7-----2-----3--
6------------------------------------  G
Прощайте, друзья, переставим часы на час;

1---7--------------------------------
2-----------7------8--------3-----5--
3------------------------------------
4---5--------------------------------
5-----------5------7--------2-----3--
6------------------------------------  
В городе новые стены, но чистый снег;

D                G        C  C/B  Am
Мы выпускаем птиц - это кончился век.
   C    G   C       G
Держи меня, будь со мной,
   C    G     A     Cm(III) G
Храни меня, пока не начался джаз.

Проигрыш: C - G - C - G - C - G - A - Cm - G

1-------7----------------------------
2------------------7--8-----3-----5--
3------------------------------------
4-------5----------------------------
5------------------5--7-----2-----3--
6------------------------------------  G
Ночью так много правил, но скоро рассвет;

1---7--------------------------------
2-----------7------8--------3-----5--
3------------------------------------
4---5--------------------------------
5-----------5------7--------2-----3--
6------------------------------------  
Сплетенье ветвей - крылья, хранящие нас.

D                G        C     C/B         Am
Мы продолжаем петь, не заметив, что нас уже нет.
   C    G   C       G
Держи меня, будь со мной,
   C    G     A     Cm(III) G
Храни меня, пока не начался джаз...

C - G - C - G

  C    G    A          Cm    G     
Веди меня туда, где начнется джаз.

Аквариум - Пока не начался Джаз аккорды

guitar chord A
guitar chord Am
guitar chord C
guitar chord Cm
guitar chord D
guitar chord G

Разбор Аквариум - Пока не начался Джаз на гитаре

1 Звезда2 Звезды3 Звезды4 Звезды5 Звезд (Пока оценок нет)
Загрузка...

Добавить комментарий

Ваш адрес email не будет опубликован. Обязательные поля помечены *