AC/DC – Lets Get It Up (tab)

шрифт
Print this page
guitar chord A
guitar chord B
guitar chord E
guitar chord A5
2020-10-15 AC/DC – Lets Get It Up (tab)
 ( E ) A   D/A  ( E ) A   D/A  A 
 E |-----------------------|--------------------------|
 B |--------------2--3--3--|--------------2--3--3--2--| Pattern 1
 G |--------------2--2--2--|--------------2--2--2--2--|
 D |-----------2--2--4--4--|-----------2--2--4--4--2--|
 A |---------2----0--0--0--|---------2----0--0--0--0--|
 E |---0-2/4---------------|---0-2/4------------------|
  A5   B5  E   A5   B5   B5 
 E |--------0---|--------------| Pattern 2 (Verse)
 B |--------0---|--------------|
 G |-2--4---1---|----2--4---4--| X 2
 D |-2--4---2---|----2--4---4--|
 A |-0--2---2---|----0--2---2--|
 E |--------0---|--------------|
(I'm gonna get it up.)...
 B  E  B  E  B  A 
 E |-------0--0-----------0-------------------0--| Pattern 3
 B |-4--4--0--0------4----0----4------------0-2--|
 G |-4--4--1--1------4----1----4--------------2--|
 D |-4--4--2--2------4----2----4--2------2----2--|
 A |-2--2--2--2------2----2----2--0------0----0--|
 E |-------0--0-----------0----------------------|

With Pattern 1
b ~~~~~ B ~~~~~
 E |----------------------------------------------------------------------------|
 B |----------------------------------------------------------------------------|
 G |-7-9--------7--7--7--7⁄6--4----7-9---------7--7--7--7-----------------------|
 D |-----------------------------7---------------------------7------------------|
 A |----------------------------------------------------------------------------|
 E |----------------------------------------------------------------------------|
Gtr.1
b B ~ ~~ B b b
 E |---------------|--7--------------|-----------------|---------7----------------
 B |-10-12--10-12--|----10-7---7-----|------10-------10⁄-10-12-10--10-7---7-------
 G |---------------|---------9--7----|--9-11--9-11-9-11⁄----------------10-10-9-7-
 D |---------------|--------------9--|-----------------|-------------------------9
 A |---------------|-----------------|-----------------|--------------------------
 E |---------------|-----------------|-----------------|--------------------------
Pattern 4 (GTR. 2 over Solo) |
|  A  B  E  A  B  A  B  E   D/A  A  |
 E |---------------|-----------------|-----------------|----2--2-2-2------------|
 B |---------------|-----------4-----|-----------------|----3--3-3-3----2-------|
 G |----2--4-4-1---|-2---4--4--4-----|--2--4-4-1-----1-|----2--2-2-2----2-------|
 D |----2--4-4-2---|-2---4--4--4-----|--2--4-4-2-----2-|-2--0--0-0-0----2-------|
 A |----0--2-2-2---|-0---2--2--2-----|--0--2-2-2-----2-|-2--0--0-0-0----0-------|
 E |-----------0---|-----------------|---------0-----0-|-0----------------------|
⁄.........................................................................../
Gtr.1 (cont.)
~~~~~ B hb B ~~~ B r b
 E |----------------------------------------------------------------------------|
 B |------------------------10--10---10--⁄---10--12--12---12--14-16--14-12-15-17|
 G |-9-7---------7----9-11-(11)--9-9-11--⁄---11--13--13---13--------------------|
 D |-----9-9--------------------------------------------------------------------|
 A |----------------------------------------------------------------------------|
 E |----------------------------------------------------------------------------|
b ~~~~~~ B b r ~~~~~~ b
 E |---------------------------------------------------------------------17-19--|
 B |15-17-------15----16------------17-19----17--15---17-15---------------------|
 G |----------------------16-16--------------------16-------16-------⁄----------|
 D |----------------------------------------------------------------------------|
 A |----------------------------------------------------------------------------|
 E |----------------------------------------------------------------------------|
b ~~ B b B b B ~~~
 E |-17---14--------------------22-24--22----19---------------------------------|
 B |---------17-18--17---15---------------------19--22-24--22-24--22-24--22-24--|
 G |------------------------16--------------------------------------------------|
 D |----------------------------------------------------------------------------|
 A |----------------------------------------------------------------------------|
 E |----------------------------------------------------------------------------|
b r B b B b b
 E |---------------------------------------------------------------19-----22-24-|
 B |22---22-24---22-19-----------------------------22-----------------19--------|
 G |-------------------21-23-21--19--20------21-23----21-23--21-23--------------|
 D |----------------------------------------------------------------------------|
 A |----------------------------------------------------------------------------|
 E |----------------------------------------------------------------------------|
b ~~~~
 E |22-19-------------------|
 B |------19--22-24-----⁄---|
 G |------------------------|
 D |------------------------|
 A |------------------------|
 E |------------------------|
Outro:
 A  ( E ) A   D/A 
 E |----------------------------------------------------------------------------|
 B |-2--2--2--2--2---2--2--2--2--2--2--2--2--2--2--2-------------2--2--2--------|
 G |-2--2--2--2--2---2--2--2--2--2--2--2--2--2--2--2-------------2--3--3--------|
 D |-2--2--2--2--2---2--2--2--2--2--2--2--2--2--2--2----------2--2--4--4--------|
 A |-0--0--0--0--0---0--0--0--0--0--0--0--0--0--0--0--------2----0--0--0--------|
 E |--------------------------------------------------0-2-4---------------------|
> > > > > >
Lyrics:
Let's get it up

Loose lips sink ships
So come aboard for a pleasure trip
It's high tide, so let's ride
The moon is rising and so am I

I'm gonna get it up
Never gonna let it up
Cruisin' on the seven seas
A pirate of my loving needs
I'll never go down, never go down

Chorus:
So let's get it up
Let's get it up, get it right up
Let's get it up, right to the top
Let's get it up, right now

Loose wires cause fires
Getting tangled in my desires
So screw 'em off and plug 'em in
Then switch it on and start all over again

I'm gonna get it up
Never gonna let it up
Ticking like a time bomb
Blowing up the fuse box
I'll never go down, never go down

Chorus

AC/DC - Lets Get It Up (tab) аккорды

guitar chord A
guitar chord B
guitar chord E
guitar chord A5

Разбор AC/DC - Lets Get It Up (tab) на гитаре

1 Звезда2 Звезды3 Звезды4 Звезды5 Звезд (Пока оценок нет)
Загрузка...

Добавить комментарий

Ваш адрес email не будет опубликован. Обязательные поля помечены *