9-й Район – Художник и музыкант

шрифт
Print this page
2021-01-30 9-й Район – Художник и музыкант
Вступление: x2
             Em                              Bm
e|---3-2-0---0---0-----0---0---------3-2-0------------------------|
B|-0-------3---------3-------------0-------3-0---0-----0---0------|
G|---------------------------------------------------2------------|

             Am                              Bm
e|---5-3-2-0-3---3---2-3---0-----------------2-2-0-2---2-3-2------|
B|-0--------------------------------------------------------------|
G|----------------------------------------------------------------|

        Em
Спорил молодой художник,
         Bm
Спорил старый музыкант,
        Am
Что важнее, что дороже,
        Bm
Что взамен, что просто так.

       Em
Я сейчас сказал художник
        Bm
Белым светом на стекле,
        Am
Нарисую, мне не сложно,
        Bm
Все, что хочется тебе.

	         C
	Семь цветов - не так уж много,
	        G
	Нету в радуге других.
	       Am
	Посмотри, рукой не трогай,
	       Bm
	Что я сотворил из них.

	         C
	Я на старенькой картине
	        G
	Нарисую новый штрих
	       Am
	И мое узнают имя
	       Bm
	И забудут про других.

Проигрыш: x2
             Em                              Bm
e|---3-2-0---0---0-----0---0---------3-2-0------------------------|
B|-0-------3---------3-------------0-------3-0---0-----0---0------|
G|---------------------------------------------------2------------|

             Am                              Bm
e|---5-3-2-0-3---3---2-3---0-----------------2-2-0-2---2-3-2------|
B|-0--------------------------------------------------------------|
G|----------------------------------------------------------------|

        Em
Ты пойми, мой друг художник,
        Bm
Я ведь тоже не богат.
        Am
У меня семь нот, не больше
        Bm
Отвечает музыкант.

        Em
Я спою, а ты послушай,
        Bm
О любви и о друзьях.
        Am
Может, я не самый лучший,
        Bm
Но правда есть в моих словах.

	         C
	Ведь у нас одна дорога
	        G
	Кто то слеп, а кто то зряч,
	       Am
	Кто от жизни взял не много,
	       Bm
	Кто устанет от удач.

	         C
	Звезд на небе очень много,
	        G
	Только всех не соберешь.
	       Am
	Верен будь своей дороге.
	       Bm
	Подрастешь - тогда поймешь.

Проигрыш: C | G | Am | Bm }x2 

	         C
	И простились лишь под утро,
	        G
	Не грустив, на посошок.
	       Am
	Кто то вечер помнит смутно
	       Bm
	И ничего понять не смог.

	         C
	Лишь художник понял много
	        G
	И немного стал мудрей,
	       Am
	Он пошел своей дорогой,
	       Bm
	Музыкант пошел своей.

Кода: C | G | Am | Bm }x4 Em      

9-й Район - Художник и музыкант аккорды

guitar chord Am
guitar chord Bm
guitar chord C
guitar chord Em
guitar chord G

Разбор 9-й Район - Художник и музыкант на гитаре

1 Звезда2 Звезды3 Звезды4 Звезды5 Звезд (Пока оценок нет)
Загрузка...

Добавить комментарий

Ваш адрес email не будет опубликован. Обязательные поля помечены *