Зимовье Зверей – Заходи

шрифт
Print this page
2021-03-20 Зимовье Зверей – Заходи
Dm              Gm
Построив свой дом на пороге Луны,
            A7                    Dm
Живу без часов, без газет и без книг.
           Dm                  Gm
Смотрю по ночам прошлогодние сны,
             A7                Dm
Снотворное звезд положив под язык.
C            F                 Bb
И лишь по утрам, когда лунный дождь
               Gm             A7
Стучит по стеклу позабытый мотив,
        Dm
Я осознаю, что все это - ложь.
    Dm         Dm
Но.. Но ты заходи...

                   Dm
        Но ты заходи -
                   Dm
        Мой дом за углом
                Gm A7
        Этого дня.
                   Dm
        Тебе по пути,
                   Dm
        И, если будет не в лом,
                  Gm C
        Навести меня.
                   F
        Но ты залетай -
                   F
        Мы будем пить чай
                            Bb
        В рождественской мгле.
                   Dm
        Я тоже зайду,
                   Dm
        Когда будет рай -
              A7
        Там у вас на Земле.


Проигрыш 1: 
(длительности не проставлены)
   Dm Gm    A7           Dm Gm    A7     
1]--------------------------------------+
2]-6--8-8-6-5h6p5----3-5-6--8-8-6-5h6p5-+

      Dm Gm    A7
1]------------------------|
2]--3-5-6--8-8-6-5h6p5----|

     Bb       (Gm)   A7       
1]-5/6---5-8--6--5---------| ++
2]------------------8--3-5-| ++

Dm              Gm
Слеплю из огней большую свечу,
            A7                 Dm
Повешу над входом портреты друзей.
Dm              Gm
Порву календарь - и буду жить, как хочу,
            A7                    Dm
Совсем не впрягаясь в напутствия дней.

C            F               Bb
И мой граммофон, вращая диск лет,
               Gm          A7
Поет мне о том, что уже позади.
        Dm
Но я сознаю, что все это бред,
    Dm     Dm
Но ты заходи...

                   Dm
        Но ты заходи -
                   Dm
        Мой дом за углом
              Gm A7
        Этого дня.
                   Dm
        Мы с тобой посидим
                   Dm
        За лунным столом
                Gm C
        И помянем меня.

                   F
        Но ты залетай -
                   F
        Я ближе, чем край,
                         Bb
        Я лишь точка в нуле.
                  Dm
        Я тоже зайду,
                   Dm
        Когда будет рай -
               A7
        Там у вас на Земле.

Проигрыш 1: 
(длительности не проставлены)
   Dm Gm    A7           Dm Gm    A7     
1]--------------------------------------+
2]-6--8-8-6-5h6p5----3-5-6--8-8-6-5h6p5-+

      Dm Gm    A7
1]------------------------|
2]--3-5-6--8-8-6-5h6p5----|

     Bb       (Gm)   A7       
1]-5/6---5-8--6--5---------| ++
2]------------------8--3-5-| ++

                   Dm
        Но ты заходи -
                   Dm
        Мой дом за углом
                Gm A7
        Этого дня.
                  Dm
        Тебе по пути,
                   Dm
        И, если будет не в лом,
                Gm C
        Навести меня.

                   F
        Но ты залетай -
                   F
        Мы будем пить чай
                          Bb
        В рождественской мгле.
                   Dm
        Я тоже зайду,
                   Dm
        Когда будет рай -
               A7
        Там у вас на Земле.


Проигрыш 2:
   Dm Gm    A7           Dm Gm    A7           Dm Gm    A7
1]---------------------------------------------------------------
2]-6--8-8-6-5h6p5----3-5-6--8-8-6-5h6p5----3-5-6--8-8-6-5h6p5----

     Bb       (Gm)   A7
1]-5/6---5-8--6--5---------|
2]------------------8--3-5-|

   Dm Gm    A7           Dm Gm    A7     
1]---------------------------------------
2]-6--8-8-6-5h6p5----3-5-6--8-8-6-5h6p5--

      Dm Gm    A7         Вb
1]-----------------------------
2]--3-5-6--8-8-6-8--6-5---2-3--

      (Gm)   A7     Dm      (и т.д. Разберетесь :)
1]-----5-------------------|
2]-5h6----6--5--6p5-5--3---|

1]-------10-8-------------------------------------
2]-------------10-8--6-8--6----7/8-8--6---6-------
3]-5/7-7--------------------7----------m7--m7-5-7-

1]---------------------------
2]--6-----10-8-6-6---6-------
3]------7---------m7--m7-5-7-

1]--13p10--10p8-8p5--5---------------------8--6-5-----------------
2]----------------------8-6-8--6-8--6-8--6---------8-6-5-----5----
3]-------------------------------------------------------7-6---7--

И под конец можно сыграть нечто импровизационное, типа:
1]------------------------------------
2]---6----8---------6-----------------
3]-7----7----7-5--7----7-5-7----------

Зимовье Зверей - Заходи аккорды

guitar chord C
guitar chord Dm
guitar chord F
guitar chord Gm
guitar chord A7
guitar chord Bb
1 Звезда2 Звезды3 Звезды4 Звезды5 Звезд (Пока оценок нет)
Загрузка...

Добавить комментарий

Ваш адрес email не будет опубликован. Обязательные поля помечены *