White Stripes – We Are Going To Be Friends

шрифт
Print this page
2021-03-11 White Stripes – We Are Going To Be Friends
Intro:
G
E----------------------------------
B---------------0-------0--------0-
G---0---0---0-------0-------0------
D----------------------------------
A----------------------------------
E-3---3---3---3---3---3---3---3----

C
E---------------------
B---------------------
G---0---0---0---0---0-
D---------------------
A-3---3---3---3---3---
E---------------------

Verses:
G
E----------------------------------
B---------------0-------0--------0-
G---0---0---0-------0-------0------
D----------------------------------
A----------------------------------
E-3---3---3---3---3---3---3---3----

C
E---------------------
B---------------------
G---0---0---0---0---0-
D---------------------
A-3---3---3---3---3---
E---------------------

G
E---------------------
B---0-------0-------0-
G-------0-------0-----
D---------------------
A---------------------
E-3---3---3---3---3---

D            C              G
E----------|--------------|---------------
B---3---3--|---1-----1----|---------------   Rpt-x1
G----------|--------------|---0---0---0---   At the end 
D-0---0----|--------------|---------------   of every
A----------|-3----3-------|---------------   Verse 
E----------|--------------|-3---3---3---3-

Bridge:
  C                 G               C
E-----------------|---------------|-----------------
B---1---1---1---1-|---------------|---1---1---1---1-
G-----------------|---0--0--0--0--|----------------- 
D-----------------|---------------|-----------------
A-3---3---3---3---|---------------|-3---3---3---3---
E-----------------|--3--3--3--3---|-----------------

  G                 D
E------------------|--------------------------
B------------------|---3--3--3--3--3--3--3--3-
G---0---0---0---0--|--------------------------
D------------------|-0--0--0--0--0--0--0--0---
A------------------|--------------------------
E-3---3---3---3----|--------------------------

  C
E------------------|--------------
B---1--1--1--1-----|---3--3--3--3-
G------------------|--------------
D------------------|-0--0--0--0---
A-3--3--3--3-------|--------------
E------------------|--------------

White Stripes - We Are Going To Be Friends аккорды

guitar chord C
guitar chord D
guitar chord G
1 Звезда2 Звезды3 Звезды4 Звезды5 Звезд (Пока оценок нет)
Загрузка...

Добавить комментарий

Ваш адрес email не будет опубликован. Обязательные поля помечены *