Виктор Петлюра – Их не зовут

2020-01-13 Виктор Петлюра – Их не зовут
Проигрыш:
e|-------3-1------------------------1-----0----------
B|-------------------0-3-0----------------------3----
G|---2-------2------------------1-----1-----1-----1--
D|--0-------------------------2----------------------
A|----------------2----------------------------------
E|---------------------------------------------------

e|--------3-1------------------------0------5---4----
B|--------------------0-3-0------------0-------------
G|----2-------2------------------1-------------------
D|---0-------------------------2---------------------
A|-----------------2---------------------------------
E|---------------------------------------------------

 Am                       Dm
Их не зовут, они приходят сами,
 E                        Am
С заученною лаской рук и глаз,
 Am                       Dm
С богатым прошлым, лживыми слезами,
 E                        Am
И клятвами, что любят первый раз.

 Am                       Dm
Их обнимают, зная, то, что вскоре,
 E                        Am
Другие руки прикоснутся к ним,
 Am                       Dm
И тлеет в сердце крошечное горе,
 E                        Am
Которое нам кажется смешным.

 Am                       Dm
И вздрагиваешь, словно от укола,
 E                        Am
Почувствовав мгновение когда,
 Am                       Dm
В прощании наигранно веселом,
 E                        Am
Безмолвное присутствие стыда.

Проигрыш:
e|-------3-1------------------------1-----0----------
B|-------------------0-3-0----------------------3----
G|---2-------2------------------1-----1-----1-----1--
D|--0-------------------------2----------------------
A|----------------2----------------------------------
E|---------------------------------------------------

e|--------3-1------------------------0------5---4----
B|--------------------0-3-0------------0-------------
G|----2-------2------------------1-------------------
D|---0-------------------------2---------------------
A|-----------------2---------------------------------
E|---------------------------------------------------

 Am                       Dm
И слыша каблучки по коридору,
 E                        Am
Ее, ушедшей в предрассветный дым,
 Am                       Dm
Внезапно понимаешь то, что дорог,
 E                        Am
Ей был за то, что не был дорогим.

 Am                       Dm
И выбежишь невольно вслед за нею,
 E                        Am
Грустишь и радуешься, что не смог догнать,
 Am                       Dm
И вдруг она становится роднее,
 E                        Am
За то, что с ней не встретишься опять.

 Am                       Dm
С которой сам виновен в равной мере,
 E                        Am
Коль жаждою любимым быть томим,
 Am                       Dm
Ночным словам ничуточки не веря,
 E                        Am
Твердил себе, что все же веришь им.

Проигрыш:
e|-------3-1------------------------1-----0----------
B|-------------------0-3-0----------------------3----
G|---2-------2------------------1-----1-----1-----1--
D|--0-------------------------2----------------------
A|----------------2----------------------------------
E|---------------------------------------------------

e|--------3-1------------------------0------5---4----
B|--------------------0-3-0------------0-------------
G|----2-------2------------------1-------------------
D|---0-------------------------2---------------------
A|-----------------2---------------------------------
E|---------------------------------------------------

Виктор Петлюра - Их не зовут аккорды

guitar chord Am
guitar chord Dm
guitar chord E

Разбор Виктор Петлюра - Их не зовут на гитаре

1 Звезда2 Звезды3 Звезды4 Звезды5 Звезд (Пока оценок нет)
Загрузка...