Юлия Чичерина – Точки

шрифт
Print this page
guitar chord C
guitar chord D
guitar chord E
guitar chord Em
guitar chord G
guitar chord D#
guitar chord E7
guitar chord A7
guitar chord B7
guitar chord Cm6
guitar chord E5
guitar chord C5
guitar chord Am6
2020-09-15 Юлия Чичерина – Точки
Intro:                                                      
e:-0-----3---0---------5-------------7-------10h11p-7-----    
B:---------------4---------4---8---------8--------------8-    
                                                               
e:-0-----3---0---------5-------------7-------12-----7-----    
B:---------------4---------4---8---------8--------------8-    
                                                               
   Em               Cm6         
  Точки, черточки. Рожки, чертики. 
    G
  Крестики-нолики. Шарики за ролики.
  Em             Cm6             
  Иглы, колики. Деньги, анаболики. 
   G
  Теплые лужицы. Фильмы ужасов.

        C5                  B5
e:-12-:--------------------------------------------
B:-12-:-----11b-------11b-------11b-----10-8-------
G:----:-9-9-------9-9-------9-9--------------9-7-9-

        E5
     e:-------------------------------7------------
     B:-----11b-------11b--------------------------
     G:-9-9-------9-9-----------9-7-9---10p9-9-7-9-

        C5                  B5
     e:--------------------------------------------
     B:-----11b-------11b-------11b-----10-8-------
     G:-9-9-------9-9-------9-9--------------9-7-9-

        E5
     e:--------------------------------------------
     B:-----11b-------11b--------------9-9-9-9-9-9-
     G:-9-9-------9-9------------------7-7-7-7-7-7-
     D:--------------------------------9-9-9-9-9-9-
     D:--------------------------------7-7-7-7-7-7-

Verse:                                               
С                B7            Em                    
  Моя больная любовь сводит тебя с ума               
С              B7      Em                          
  Мои руки, твои глаза, твои шаги, мои голоса    
С                B7            Em/B               
  У тебя под матрасом есть пистолет                 
Am6                                 
 То говоришь, что ты любишь меня,    
 A7
  То вдруг ты хочешь убить меня

Chorus:
   C                B7           
  Точки, черточки. Рожки, чертики. 
    Em              E7
  Крестики-нолики. Шарики за ролики
  C              B7              
  Иглы, колики. Деньги, анаболики. 
   Em             E7
  Теплые лужицы. Фильмы ужасов
   C                B7                
  Ночь, раздетая, где-то я, с кем-то я, 
   Em            E7
  Сила трения, сколько времени
  C                B7            Em  E7
  Моя больная любовь сводит тебя с ума

Verse:
С            B7                 Em
Я хочу убежать, но не знаю куда бежать, куда бежать, куда? куда?
C                B7            Em
Моя больная любовь сводит тебя с ума, с ума, сама, меня, она
С              B7                    Em
У тебя пистолет, я как загнанный зверь - куда? куда? куда? куда?
Am6                                 A7
То говоришь, что ты любишь меня, то вдруг ты хочешь убить меня

Chorus:
   C                B7           
  Точки, черточки. Рожки, чертики. 
    Em              E7
  Крестики-нолики. Шарики за ролики
  C              B7              
  Иглы, колики. Деньги, анаболики. 
   Em             E7
  Теплые лужицы. Фильмы ужасов
   C                B7                
  Ночь, раздетая, где-то я, с кем-то я, 
   Em            E7
  Сила трения, сколько времени
  C                B7            Em  E7
  Моя больная любовь сводит тебя с ума

Solo: x2
e:----------------:-----------------:-----------------:-----------------
B:------10--------:------10--12b13r-:------10---------:------10--13b14r-
G:-12b------9b&r--:-12b-------------:-12b------11b12r-:-12b-------------
D:----------------:-----------------:-----------------:-----------------
A:----------------:-----------------:-----------------:-----------------
E:----------------:-----------------:-----------------:-----------------

   Em                            
  Точки, черточки. Рожки, чертики. 
    D#
  Крестики-нолики. Шарики за ролики.
  D                               
  Иглы, колики. Деньги, анаболики. 
  E
  Теплые лужицы. Фильмы ужасов.
   Em                                  
  Ночь, раздетая, где-то я, с кем-то я, 
  D#
  Сила трения, сколько времени
   D                              
  Точки, черточки. Рожки, чертики. 
  E
  Точки, черточки. Точки, черточки.

Chorus:
   C                B7           
  Точки, черточки. Рожки, чертики. 
    Em              E7
  Крестики-нолики. Шарики за ролики
  C              B7               
  Иглы, колики. Деньги, анаболики. 
  Em             E7
  Теплые лужицы. Фильмы ужасов
   C                B7                 
  Ночь, раздетая, где-то я, с кем-то я, 
  Em            E7
  Сила трения, сколько времени
  C                B7            Em  E7
  Моя больная любовь сводит тебя с ума

Юлия Чичерина - Точки аккорды

guitar chord C
guitar chord D
guitar chord E
guitar chord Em
guitar chord G
guitar chord D#
guitar chord E7
guitar chord A7
guitar chord B7
guitar chord Cm6
guitar chord E5
guitar chord C5
guitar chord Am6

Разбор Юлия Чичерина - Точки на гитаре

1 Звезда2 Звезды3 Звезды4 Звезды5 Звезд (Пока оценок нет)
Загрузка...

Добавить комментарий

Ваш адрес email не будет опубликован. Обязательные поля помечены *