Танцы Минус – Ночь

2019-10-09 Танцы Минус – Ночь
Вступление: Cm Ab G
Cm       (Eb)       Ab        G       Cm
Когда зажгут фонари, на нас опустится ночь.
Бледным светом луны она укутает нас.
Мы уйдем в эту ночь, уйдем на поезд любви
И, может быть, никогда мы не вернемся назад.
	Проигрыш (те же аккорды)
На нас опустится ночь, у ночи нас не отнять.
Она нас будет давить плитой тяжелых небес.
И пусть наши сердца эта ночь разобьет,
Мы сложим новый костер из разбитых сердец.
	И пусть ночные тени танцуют этот танец,
	За нас танцуют танец нашей любви.
	Пусть кружат хороводы вокруг огня, который,
	Вокруг огня, который мы зажгли.
Соло:
     Cm                         Eb
E||--------------------------|----------------------|
H||------13------------------|----------------------|
G||------------12------------|--10------12----------|
D||--10--------------13------|----------------------|
A||--------------------------|----------------------|
E||--------------------------|----------------------|
   Ab                             G 
|------------------------------|------------------------------||
|------13----------------------|------------------------------||
|------------12----10----------|----------12--10----12--10----||
|--10------------------13--12--|--13--13----------------------||
|------------------------------|------------------------------||
|------------------------------|------------------------------||
Навстречу новому дню, прочь от мерцающих звезд,
Прочь от холодных ночных ветров, ломающих нас.
Мы найдем свою боль и растворимся в пыли,
В пыли бегущих дорог, дорог, зовущих назад.
	Припев > 2 раза

Танцы Минус - Ночь аккорды

guitar chord Cm
guitar chord G
guitar chord Ab
guitar chord Eb

Разбор Танцы Минус - Ночь на гитаре

1 Звезда2 Звезды3 Звезды4 Звезды5 Звезд (Пока оценок нет)
Загрузка...