System Of A Down – Lost In Hollywood

шрифт
Print this page
2021-01-06 System Of A Down – Lost In Hollywood
Вступление:
|----------------------------------------|
|----------------------------------------|
|----------------------------------------| играется 16ми,
|--2----3----9----7----2----3----12---7--| 8 долей на аккорд
|--0----0----0----0----0----0----0----0--|
|----------------------------------------|

|-----------------------------------------|
|-----------------------------------------|
|-----------------------------------------|
|--2----3----9----7----2----3----12---14--|
|--0----0----0----0----0----0----0----0---|
|-----------------------------------------|
A-a-a-a-a-a....

Куплет 1:
|-------------------------------------------------------------------|
|-------------------------------------------------------------------|
|----------2-------4-------5---------------5-------4-------2--------|
|----2---2---2---2---2---2---2---2---2---2---2---2---2---2---2---2--|
|--0---0-------0-------0-------0---0---0-------0-------0-------0----|
|-------------------------------------------------------------------|
I'll wait here, You're crazy

|-------------------------------------------------------------------|
|----------------------------------5--------------------------------|
|----------2-------4-------5---------------5-------4-------2--------|
|----2---2---2---2---2---2---2---2---2---2---2---2---2---2---2---2--|
|--0---0-------0-------0-------0-------0-------0-------0-------0----|
|-------------------------------------------------------------------|
Those vicious streets are filled with strays

|-------------------------------------------------------------------|
|----------------------------------3-3-3-3-3-3-3-3-3-3-3-3-3--------|
|------5-----7-----7-----7---------4-4-4-4-4-4-4-4-4-4-4-4-4-5-4-5--|
|----5---5-----5-----5-----5---5---2-2-2-2-2-2-2-2-2-2-2-2-2-2-2-2--|
|--3-------3-----3-----3-----3---3----------------------------------|
|-------------------------------------------------------------------|
You should've never gone to Hollywood

|-------------------------------------------------------------------|
|-------------------------------------------------------------------|
|----------2-------4-------5---------------5-------4-------2--------|
|----2---2---2---2---2---2---2---2---2---2---2---2---2---2---2---2--|
|--0---0-------0-------0-------0---0---0-------0-------0-------0----|
|-------------------------------------------------------------------|
They find you, Two-time you

|-------------------------------------------------------------------|
|----------------------------------5--------------------------------|
|----------2-------4-------5---------------5-------4-------2--------|
|----2---2---2---2---2---2---2---2---2---2---2---2---2---2---2---2--|
|--0---0-------0-------0-------0-------0-------0-------0-------0----|
|-------------------------------------------------------------------|
Say you're the best they've ever seen

|-------------------------------------------------------------------|
|----------------------------------3-3-3-3-3-3-3-3-3-3-3-3-3--------|
|------5-----7-----7-----7---------4-4-4-4-4-4-4-4-4-4-4-4-4-5-4-5--|
|----5---5-----5-----5-----5---5---2-2-2-2-2-2-2-2-2-2-2-2-2-2-2-2--|
|--3-------3-----3-----3-----3---3----------------------------------|
|-------------------------------------------------------------------|
You should've never trusted Hollywood

Проигрыш: рифф из Интро

Куплет 2:
|-------------------------------------------------------------------|
|-------------------------------------------------------------------|
|----------2-------4-------5---------------5-------4-------2--------|
|----2---2---2---2---2---2---2---2---2---2---2---2---2---2---2---2--|
|--0---0-------0-------0-------0---0---0-------0-------0-------0----|
|-------------------------------------------------------------------|
I wrote you And told you

|-------------------------------------------------------------------|
|----------------------------------5--------------------------------|
|----------2-------4-------5---------------5-------4-------2--------|
|----2---2---2---2---2---2---2---2---2---2---2---2---2---2---2---2--|
|--0---0-------0-------0-------0-------0-------0-------0-------0----|
|-------------------------------------------------------------------|
You were the biggest fish out here

|-------------------------------------------------------------------|
|----------------------------------3-3-3-3-3-3-3-3-3-3-3-3-3--------|
|------5-----7-----7-----7---------4-4-4-4-4-4-4-4-4-4-4-4-4-5-4-5--|
|----5---5-----5-----5-----5---5---2-2-2-2-2-2-2-2-2-2-2-2-2-2-2-2--|
|--3-------3-----3-----3-----3---3----------------------------------|
|-------------------------------------------------------------------|
You should've never gone to Hollywood

|-------------------------------------------------------------------|
|-------------------------------------------------------------------|
|----------2-------4-------5---------------5-------4-------2--------|
|----2---2---2---2---2---2---2---2---2---2---2---2---2---2---2---2--|
|--0---0-------0-------0-------0---0---0-------0-------0-------0----|
|-------------------------------------------------------------------|
They take you And make you

|-------------------------------------------------------------------|
|----------------------------------5--------------------------------|
|----------2-------4-------5---------------5-------4-------2--------|
|----2---2---2---2---2---2---2---2---2---2---2---2---2---2---2---2--|
|--0---0-------0-------0-------0-------0-------0-------0-------0----|
|-------------------------------------------------------------------|
They look at you in disgusting ways

|-------------------------------------------------------------------|
|----------------------------------3-3-3-3-3-3-3-3-3-3-3-3-3--------|
|------5-----7-----7-----7---------4-4-4-4-4-4-4-4-4-4-4-4-4-5-4-5--|
|----5---5-----5-----5-----5---5---2-2-2-2-2-2-2-2-2-2-2-2-2-2-2-2--|
|--3-------3-----3-----3-----3---3----------------------------------|
|-------------------------------------------------------------------|
You should've never trusted Hollywood

Припев:
|-----------------------|
|-----------------------|
|--5--------------------| бой не расписываю-
|--5----5----7----2--3--| в песне слышно хорошо
|--3----5----7----2--3--|
|-------5----7----2--3--|

Дэйрон:
I was standing on the wall
Feeling ten feet tall
All you maggots
Smoking fags on Santa Monica Blvd.

This is my front page
This is my new age
All you bitches put your hands in the air
And wave them like you just don't care

All you maggots
Smoking fags out there on Sunset Blvd.
All you bitches put your hands in the air
And wave them like you just don't care

Серж ведет мелодию голосом.

Переход:
|------------------------------------------1---------------0--------|
|----------1---------------0-----------3-----3---3-----0-----0---0--|
|------2-----2---2-----1-----1---1---2---2-----2-----1---1-----1----|
|----2---2-----2-----0---0-----0---3---------------2----------------|
|--0---------------2------------------------------------------------|
|-------------------------------------------------------------------|

|----------1--------------------------------------------------------|
|------3-----3---3---------1---------------0---------------0--------|
|----2---2-----2-------2-----2---2-----1-----1---1-----1-----1---1--|
|--0-----------------2---2-----2-----0---0-----0-----0---0-----0----|
|------------------3---------------2---------------2----------------|
|-------------------------------------------------------------------|
Phony people come to pray

|------------------------------------------1---------------0--------|
|----------1---------------0-----------3-----3---3-----0-----0---0--|
|------2-----2---2-----1-----1---1---2---2-----2-----1---1-----1----|
|----2---2-----2-----0---0-----0---3---------------2----------------|
|--0---------------2------------------------------------------------|
|-------------------------------------------------------------------|
Look at all of them beg to stay

|----------1--------------------------------------------------------|
|------3-----3---3---------1---------------0---------------0--------|
|----2---2-----2-------2-----2---2-----1-----1---1-----1-----1---1--|
|--0-----------------2---2-----2-----0---0-----0-----0---0-----0----|
|------------------3---------------2---------------2----------------|
|-------------------------------------------------------------------|
Phony people come to pray

|------------------------------------------1---------------0--------|
|----------1---------------0-----------3-----3---3-----0-----0---0--|
|------2-----2---2-----1-----1---1---2---2-----2-----1---1-----1----|
|----2---2-----2-----0---0-----0---3---------------2----------------|
|--0---------------2------------------------------------------------|
|-------------------------------------------------------------------|

Серж:                                  Дэйрон:
(The lines in the letter said 
"We have gone to Hackensack")          Look at all of them beg to stay

|----------1--------------------------------------------------------|
|------3-----3---3---------1---------------0---------------0--------|
|----2---2-----2-------2-----2---2-----1-----1---1-----1-----1---1--|
|--0-----------------2---2-----2-----0---0-----0-----0---0-----0----|
|------------------3---------------2---------------2----------------|
|-------------------------------------------------------------------|
Phony people come to pray

Припев: 
|-----------------------|
|-----------------------|
|--5--------------------| бой не расписываю-
|--5----5----7----2--3--| в песне слышно хорошо
|--3----5----7----2--3--|
|-------5----7----2--3--|

All you maggots
Smoking fags on Santa Monica Blvd.

All you maggots
Smoking fags out there on Sunset Blvd.

All you maggots
Smoking fags out there on Hollywood Blvd.

You should've never trusted Hollywood
You should've never gone to Hollywood

All you bitches put your hands in the air
And wave them like you just don't care

Outro: рифф из припева, один раз, закончить полным аккордом Am
|-----------------------|
|-----------------------|
|--5--------------------| бой не расписываю-
|--5----5----7----2--3--| в песне слышно хорошо
|--3----5----7----2--3--|
|-------5----7----2--3--|

Am
You should've never trusted Hollywood...

System Of A Down - Lost In Hollywood аккорды

guitar chord Am

Разбор System Of A Down - Lost In Hollywood на гитаре

1 Звезда2 Звезды3 Звезды4 Звезды5 Звезд (Пока оценок нет)
Загрузка...

Добавить комментарий

Ваш адрес email не будет опубликован. Обязательные поля помечены *