Свидетельство о смерти – Привет (с соло)

шрифт
Print this page
2021-10-02 Свидетельство о смерти – Привет (с соло)
Соло партия 1
1|---------------------2---7-6------------------------2-3-7-6-----
2|-(5-5-3-3-2-3)x2-3-5---0--------(5-5-3-3-2-3)x2-3-5-------------
3|-----------------------------8-7--------------------------------
4|----------------------------------------------------------------
5|----------------------------------------------------------------
6|----------------------------------------------------------------

Первый куплет
Am                            Dm
Привет всем непроснувшимся,оставшимся во сне,
F                           E
Глядевшим накануне сквозь стеклянные глаза!
Am                                Dm 
Тем,кто любил ходить смотреть на звёзды по весне..
F                                E
Тем,кто любил ласкать и гладить нежно волоса..


Припев 1
1|--------------------------------2------------------3-2-
2|-5-5-3-3-2-3---5-5-3-3-2-3-3-5---0--2-2-3-2--2-3-4-----
от-сю-да на тот свет в кирзо-вых са-по-гах я не хо-тел..
1|--------------------------------2---3-2---------------
2|-5-5-3-3-2-3---5-5-3-3-2-3-3-5---0------5-3--2--------
ты не жа-лей ме-ня..мо-зо-ли на но-гах - я не ус-пел..


Второй куплет
Am                             Dm
Паркетный пол трещит под моей крышкой черепной.
F                             E
Сегодня я узнал,что стал не нужен никому.
Am                         Dm
Когда настанет утро,я опять уйду домой,
F                         E
И буду всё равно идти наперекор всему.

Припев 2
1|------------------------------2-------------2-3-------------3-2-
2|-5-5-3-3-2-3--5-5-3-3-2-3-3-5---0---0-2-3-5----0-2-3-2-2-3-5----
от-сю-да на тот свет за-быв в карма-не страх я не хо-тел..
1|------------------------------2-----3-2-0-3-3-2-0-2-6-7-9-10-7-
2|-5-5-3-3-2-3--5-5-3-3-2-3-3-5---0------------------------------
ты не жа-лей ме-ня..мо-зо-ли на но-гах - я не ус-пел..

Соло партия 2
1|-----------------7-6-2-0-2-2--(6-7)x4---------------2-3-7-6-----
2|-(5-5-3-3-2-3)x2---------------------(5-5-3-3-2-3)x2------------
3|------------------------------------------------------------8-7-
4|----------------------------------------------------------------
5|----------------------------------------------------------------
6|----------------------------------------------------------------

Третий куплет
Am                           Dm
Я помню,как сплетались наши жаркие тела.
F                              E
Мне говорили,что все ощущали тот пожар.
Am                           Dm
Как лучик из-под двери видел я свои дела
F                               E
И с болью замечал,что мир стал безнадёжно стар..

Припев х2
1|--------------------------------2------------------3-2----
2|-5-5-3-3-2-3---5-5-3-3-2-3-3-5---0--2-2-3-2--2-3-4----------
от-сю-да на тот свет в кирзо-вых са-по-гах я не хо-тел..
1|--------------------------------2---3-2-----------
2|-5-5-3-3-2-3---5-5-3-3-2-3-3-5---0------5-3--2
ты не жа-лей ме-ня..мо-зо-ли на но-гах - я не ус-пел..

1|------------------------------2-------------2-3-------------3-2-
2|-5-5-3-3-2-3--5-5-3-3-2-3-3-5---0---0-2-3-5----0-2-3-2-2-3-5----
от-сю-да на тот свет за-быв в карма-не страх я не хо-тел..
1|------------------------------2-----3-2-0-3-3-2-0-2-6-7-9-10-7-
2|-5-5-3-3-2-3--5-5-3-3-2-3-3-5---0------------------------------
ты не жа-лей ме-ня..мо-зо-ли на но-гах - я не ус-пел..

Соло партия 2
1|-----------------7-6-2-0-2-2--(6-7)x4---------------2-3-7-6-----
2|-(5-5-3-3-2-3)x2---------------------(5-5-3-3-2-3)x2------------
3|------------------------------------------------------------8-7-
4|----------------------------------------------------------------
5|----------------------------------------------------------------
6|----------------------------------------------------------------


Свидетельство о смерти - Привет (с соло) аккорды

guitar chord Am
guitar chord Dm
guitar chord E
guitar chord F
1 Звезда2 Звезды3 Звезды4 Звезды5 Звезд (Пока оценок нет)
Загрузка...

Добавить комментарий

Ваш адрес email не будет опубликован. Обязательные поля помечены *