Северный флот – Старый Крысолов

шрифт
Print this page
2021-02-17 Северный флот – Старый Крысолов
Вступление: x3         
3)-9-9-9-(9)---4-4-4-(4)---7-9-4-4-4-(4)-|-9-9-9-(9)---4-4-4-(4)---7-9-11-9-9-9-(9)-|
4)-7-7-7-(7)---2-2-2-(2)---5-7-2-2-2-(2)-|-7-7-7-(7)---2-2-2-(2)---5-7-9--7-7-7-(7)-|
5)-7-7-7-(7)---2-2-2-(2)---5-7-2-2-2-(2)-|-7-7-7-(7)---2-2-2-(2)---5-7-9--7-7-7-(7)-|

Куплет: x3 
  Ты думаешь, будто можно...    ...И остаться дальше самим собой?
1)------------------------------|-5-5-5-5-5---5-5---7-7--|
2)------------------------------|-7-7-7-7-7---5-5---7-7--|
3)------------------------------|-7-7-7-7-7---6-6---8-8--|
4)-9-7--9-7--9-7--9-9--9-7--7-9-|-7-7-7-7-7---7-7---9-9--|
5)-9-7--9-7--9-7--9-10-9-7--7-9-|-5-5-5-5-5---7-7---9-9--|
6)-7-7--7-7--7-7--7-7--7-7--7-7-|-------------5-5---7-7--|
   v ^  v ^  v ^  v ^  ^ ^  ^ v   v v v ^ v   ^ ^   ^ v

Куплет:
Bm
Ты думаешь, будто можно
Bm
Со мною быть осторожным,
Bm
Увидеться раз-другой
     D              A      B
И остаться дальше самим собой?

Bm
Все, кто до тебя так мыслил,
Bm
Давно в небесах повисли.
Bm
Услышали флейту и
     D              A      B
Навсегда за мною во мрак ушли.

Пре-припев 1: x4
   Воу воу воу-воу-воу...   
1)-0-0-0-0-0-0--0-0-0-0-0-0-0-0-0-       
2)-0-0-0-0-0-0--0-0-0-0-0-0-0-0-0-       
3)-1-1-1-1-1-1--1-1-1-1-1-1-1-1-1-       
4)-2-2-2-2-2-2--2-2-2-2-2-2-2-2-2-       
5)-2-2-2-2-2-2--2-2-2-2-2-2-2-2-2-       
6)-0-0-0-0-0-0--0-0-0-0-0-0-0-0-0-       
   V v ^ ^ v ^  v ^ v ^ ^ v ^(v^v^)       

Пре-припев 2: x2
Воу воу воу-воу-воу,напевает...
1)-0-0-0-0-0-0--0-0-0-0-0-0-0-0-0---1-1-1-1-1-1--2-2-2-3-2-2-2-
2)-0-0-0-0-0-0--0-0-0-0-0-0-0-0-0---0-0-0-0-0-0--3-3-3-3-3-3-3-
3)-1-1-1-1-1-1--1-1-1-1-1-1-1-1-1---0-0-0-0-0-0--2-2-2-2-2-2-2-
4)-2-2-2-2-2-2--2-2-2-2-2-2-2-2-2---0-0-0-0-0-0--0-0-0-0-0-0-0-
5)-2-2-2-2-2-2--2-2-2-2-2-2-2-2-2---2-2-2-2-2-2----------------
6)-0-0-0-0-0-0--0-0-0-0-0-0-0-0-0---3-3-3-3-3-3----------------
  V v ^ ^ v ^  v ^ v ^ ^ v ^(v^v^) V v ^ ^ v ^  v ^ v ^ ^ v ^

E
Воу воу воу-воу-воу.
E
Воу воу во-о-оу. 
E
Воу воу воу-воу-воу.
E
Воу воу во-о-оу  

Куплет:
Bm
Попробуй хоть раз,и знаешь,
Bm
Почувствуешь, как теряешь
Bm
Все то, чем ты дорожил
     D              A      B
Ты исчезнешь, будто бы и не жил.

Пре-припев: 
E
Воу воу воу-воу-воу.
G          D 
Напевает Старый Крысолов 
E
Воу воу воу-воу-воу 
G              D
Пусть играет флейта...

Припев:
A                G
Дней непрожитых не жалейте
Bm            D
Навсегда сжигаются мосты
A             G
Только спины вокруг,
       D
Огонь остыл.
A             G 
Иногда, отраженья вместо,
Bm              D          A
Видишь в зеркалах пустое место
A 
Исчезаешь ты.

Проигрыш 1 = Куплет:
1)------------------------------|-5-5-5-5-5---5-5---7-7--|
2)------------------------------|-7-7-7-7-7---5-5---7-7--|
3)------------------------------|-7-7-7-7-7---6-6---8-8--|
4)-9-7--9-7--9-7--9-9--9-7--7-9-|-7-7-7-7-7---7-7---9-9--|
5)-9-7--9-7--9-7--9-10-9-7--7-9-|-5-5-5-5-5---7-7---9-9--|
6)-7-7--7-7--7-7--7-7--7-7--7-7-|-------------5-5---7-7--|
   v ^  v ^  v ^  v ^  ^ ^  ^ v   v v v ^ v   ^ ^   ^ v

Куплет:
Bm
Когда начинаешь слушать
Bm
Ты флейту пускаешь в душу
Bm
Себе выбирая путь
     D              A      B
Никуда с которого не свернуть

Bm
Коварные эти звуки
Bm
Тебя обрекут на муки,
Bm
Теперь у тебя, поверь,
     D              A      B
Впереди последняя в небо дверь.

Пре-припев 1: x4
   Воу воу воу-воу-воу...   
1)-0-0-0-0-0-0--0-0-0-0-0-0-0-0-0-       
2)-0-0-0-0-0-0--0-0-0-0-0-0-0-0-0-       
3)-1-1-1-1-1-1--1-1-1-1-1-1-1-1-1-       
4)-2-2-2-2-2-2--2-2-2-2-2-2-2-2-2-       
5)-2-2-2-2-2-2--2-2-2-2-2-2-2-2-2-       
6)-0-0-0-0-0-0--0-0-0-0-0-0-0-0-0-       
   V v ^ ^ v ^  v ^ v ^ ^ v ^(v^v^)       

Пре-припев 2: x2
Воу воу воу-воу-воу,напевает...
1)-0-0-0-0-0-0--0-0-0-0-0-0-0-0-0---1-1-1-1-1-1--2-2-2-3-2-2-2-
2)-0-0-0-0-0-0--0-0-0-0-0-0-0-0-0---0-0-0-0-0-0--3-3-3-3-3-3-3-
3)-1-1-1-1-1-1--1-1-1-1-1-1-1-1-1---0-0-0-0-0-0--2-2-2-2-2-2-2-
4)-2-2-2-2-2-2--2-2-2-2-2-2-2-2-2---0-0-0-0-0-0--0-0-0-0-0-0-0-
5)-2-2-2-2-2-2--2-2-2-2-2-2-2-2-2---2-2-2-2-2-2----------------
6)-0-0-0-0-0-0--0-0-0-0-0-0-0-0-0---3-3-3-3-3-3----------------
  V v ^ ^ v ^  v ^ v ^ ^ v ^(v^v^) V v ^ ^ v ^  v ^ v ^ ^ v ^

E
Воу воу воу-воу-воу.
E
Воу воу во-о-оу. 
E
Воу воу воу-воу-воу.
E
Воу воу во-о-оу 

Припев:
A                G
Дней непрожитых не жалейте
Bm            D
Навсегда сжигаются мосты
A             G
Только спины вокруг,
       D
Огонь остыл.
A             G 
Иногда, отраженья вместо,
Bm              D          A
Видишь в зеркалах пустое место
A 
Исчезаешь ты.

Проигрыш 2 = Вступление:
3)-9-9-9-(9)---4-4-4-(4)---7-9-4-4-4-(4)-|-9-9-9-(9)---4-4-4-(4)---7-9-11-9-9-9-(9)-|
4)-7-7-7-(7)---2-2-2-(2)---5-7-2-2-2-(2)-|-7-7-7-(7)---2-2-2-(2)---5-7-9--7-7-7-(7)-|
5)-7-7-7-(7)---2-2-2-(2)---5-7-2-2-2-(2)-|-7-7-7-(7)---2-2-2-(2)---5-7-9--7-7-7-(7)-|

Припев:
A                G
Дней непрожитых не жалейте
Bm            D
Навсегда сжигаются мосты
A             G
Только спины вокруг,
       D
Огонь остыл.
A             G 
Иногда, отраженья вместо,
Bm              D          A
Видишь в зеркалах пустое место
A 
Исчезаешь ты.

Северный флот - Старый Крысолов аккорды

guitar chord A
guitar chord B
guitar chord Bm
guitar chord D
guitar chord E
guitar chord G

Разбор Северный флот - Старый Крысолов на гитаре

1 Звезда2 Звезды3 Звезды4 Звезды5 Звезд (Пока оценок нет)
Загрузка...

Добавить комментарий

Ваш адрес email не будет опубликован. Обязательные поля помечены *