Scorpions – Drifting Sun

шрифт
Print this page
2021-02-24 Scorpions – Drifting Sun
Tuning : -1/2
Intro:
      B5            A5           G5             F#5  G A
Gtr1|----------7------------5-----------3---------------------|
    |------------------------------------------------------------|
    |------------------------------------------------------------|
    |-9-9-9-9------7-7-7-7-------5-5-5-5-------4-4-x-5-7---------|
    |-9-9-9-9------7-7-7-7-------5-5-5-5-------4-4-x-5-7---------|
    |-7-7-7-7------5-5-5-5-------3-3-3-3-------2-2-x-3-5---------|
    |
    |  
    |
    |   B5        A5              G5               F#5 G A
Gtr2|----/7----10-9-107--------------------------------------------------|
    |------------------------10-7-8--7---7--------------------------------|
    |----------------------------------9---7-------------7----------------|
    |-------------------------------------------/9-11-12---11-9----9------|
    |-----------------------------------------------------------12--------|
    |---------------------------------------------------------------------|
Verse:
      B5            A5           G5             F#5  G A
Gtr1|----------7------------5-----------3---------------------|
    |------------------------------------------------------------|
    |------------------------------------------------------------|
    |-9-9-9-9------7-7-7-7-------5-5-5-5-------4-4-x-5-7---------|
    |-9-9-9-9------7-7-7-7-------5-5-5-5-------4-4-x-5-7---------|
    |-7-7-7-7------5-5-5-5-------3-3-3-3-------2-2-x-3-5---------|
I'm sitting on a stone, sitting all alone...
                   B5        A5      G5             F#5  G A
Gtr2|---------------------7------7------12b---7------------------|
    |-----------------7-7---10b----10-7---------10-7-------------|
    |------------------------------------------------10-9v-7-----|
    |---------------------------------------------------------9--|
    |------------------------------------------------------------|
    |------------------------------------------------------------|
Daisies are rolling...
Chorus:
     B5            A5           G5             F#5  G A
Gtr1|----------7------------5-----------3---------------------|
    |------------------------------------------------------------|
    |------------------------------------------------------------|
    |-9-9-9-9------7-7-7-7-------5-5-5-5-------4-4-x-5-7---------|
    |-9-9-9-9------7-7-7-7-------5-5-5-5-------4-4-x-5-7---------|
    |-7-7-7-7------5-5-5-5-------3-3-3-3-------2-2-x-3-5---------|
    Shine on...
     B5            A5           G5             F#5  G A
    |-----------------------------7------12b-12b-12b---7-------------------|
    |-10b---10b---10b+r-10b-10b-----10-7-----------------10-7h10p7-10-10b--|
    |----------------------------------------------------------------------|
    |----------------------------------------------------------------------|
    |----------------------------------------------------------------------|
    |----------------------------------------------------------------------|
so cold right here...
Play similar leads(gtr2) in the whole verse, with the same rhythms (Gtr1)
Bridge:
       Bm
    |--7---------|--7---------|--7---------|--7--------|
    |--7---------|--7---------|--7---------|--7--------|
    |--7---------|--7---------|--7---------|--7--------|
    |--9---------|--9---------|--9---------|--9--------|
    |--9---------|--9---------|--9---------|--9--------|
    |--7---------|--7---------|--7---------|--7--------|
    One day baby told you sun just fades away...

Scorpions - Drifting Sun аккорды

guitar chord A
guitar chord Bm
guitar chord G
guitar chord G5
guitar chord A5

Разбор Scorpions - Drifting Sun на гитаре

1 Звезда2 Звезды3 Звезды4 Звезды5 Звезд (Пока оценок нет)
Загрузка...

Добавить комментарий

Ваш адрес email не будет опубликован. Обязательные поля помечены *