Scorpions – Dont Believe Her

шрифт
Print this page
2021-02-27 Scorpions – Dont Believe Her
Don't Believe her
Intro: Played by 3 guitars.
Gtr1:
------------------------- --------------------------- ------------------------
--10-10-10-10-10-10-10-10 -9--9--9--9--9--9--9--9---- -8--8--8--8--8--8--8--8-
--12-12-12-11-11-11-11-11 -11-11-11-10-10-10-10-10--- -10-10-10-9--9--9--9--9-
------------------------- --------------------------- ------------------------
------------------------- --------------------------- ------------------------
------------------------- --------------------------- ------------------------
Gtr2: doubles 1
--------------------- ------------------------- ------------------------- ------------------------
--7-7-7-7-7-7-7-7---- 10-10-10-10-10-10-10-10-- -9--9--9--9--9--9--9--9-- -8--8--8--8--8--8--8--8-
--9-9-9-8-8-8-8-8---- 12-12-12-11-11-11-11-11-- -11-11-11-10-10-10-10-10- -10-10-10-9--9--9--9--9-
--------------------- ------------------------- ------------------------- ------------------------
--------------------- ------------------------- ------------------------- ------------------------
--------------------- ------------------------- ------------------------- ------------------------
--------------------- ----------------------------------- ----------------------
--7-7-7-7-7-7-7-7---- -7--(7)-----------11----11-10----7 -----8-----8-8-7----3-
--9-9-9-8-8-8-8-8---- -8--(8)--10-------10----10-10----7 -----7-----7-7-7----3-
--------------------- -----------0----0-0-0--0--0--0--0-0 -0-0-0-0-0-0-0-0--0-0-
--------------------- ----------------------------------- ----------------------
--------------------- ----------------------------------- ----------------------
Gtr 3:
----------------------------------- --------------8^/^10~~~---
--7^/^8---8-7-5-----7^/^8--8-7-5--- -7^/^8---8---------------
----------------7----------------7- --------------------------
----------------------------------- --------------------------
----------------------------------- --------------------------
----------------------------------- --------------------------
------------------------- -------------------------- ---------------------
--------5----5--3-----6-- ----8^^7----8^^7--7------- -------11----11----7-
--------5----5--3-----7-- ----7-------7-----7^/^10-- -------10----10----7-
-X--X---0----0--0--0--0-- -0--0-------0-----0----0-- --0--0--0--0--0-0--0-
------------------------- -------------------------- ---------------------
------------------------- -------------------------- ---------------------
--~~10---10^8^5------------- ----15Fb--15B-15Fb-15B-15Fb-15B-- -15Fb-15Fb(15)^13---------
----------------8----8~~~~-- ------------------------------------ -----------------15-15~~~-
---------------------------- ------------------------------------ --------------------------
---------------------------- ------------------------------------ --------------------------
---------------------------- ------------------------------------ --------------------------
---------------------------- ------------------------------------ --------------------------
------------------------------ -------------------------------
-------8---------8--7-----3--- -----5----5--3--5~~~~~-6~~~---- 
-------7---------7--7-----3--- -----5----5--3--5~~~~~-7~~~-10-
-0--0--0------0--0--0--0--0--- -X-X-0----0--0--0~~~~~-0~~~-0--
------------------------------ -------------------------------
------------------------------ -------------------------------
Verse 1:             1            2           3
Chords in order:( D/C-Cm-C)-(Csus4-C-D/C)-(G/C-D/C-Cm).
The D chord is sharp and the order of the chords may change slightly.
                 
 Out for a thrill got time to kill Just livin' up my dreams 1-2-3
 for heaven's sake She's on the make a twisted vicar's queen 1-2-3
 And then one night we took a ride (Csus4-C-Csus4-Cm-D/C-Cm-C-2)
 She was all over me Outrageous it (3-Csus4-C-Csus4-Cm-1)
 Just ain't real I was too wasted to see (1-3-Csus4-C-Csus4-G5)
Pre-Chorus:
 chords: ( A5-C5-G5)
 Before you get in too deep And you get burned by the heat
 Oh yeah She'll take you there
 Chorus:
    A5                  F5   D5               5
 You know it happened to me  She'll make your heart break
  G5             C5    D5            5               G5       C5  
 She'll give you fever She'll tell you everything but don't believe her
  D5    5           G5          C5     A5                       F5
 F perfect stranger She knows the game She'll promise heaven on earth 
   Cm  D/C  Cm    C
 But don't believe her 
Verse 2:
  (As Verse 1)-(Pre-Chorus and Chorus are the same)
 Out on the street of broken dreams Where no one ever wins
 Just when you thought you'd made a start You're back where you begin 
 Before you get in too deep
 And you get burned by the heat Oh yeah She'll
 take you there I think you know what I mean 
 She'll make you crazy She's such a teaser Says you're the only one but 
 don't believe her She deals in danger The girl's insane
 She'll promise heaven on earth But don't believe her 
 
(Guitar solo) same chords as Verse 1&2.
 Before you get in too deep And you get burned by the heat 
 Oh yeah She'll take you there
 You know it happened to me  Don't believe her 
 Don't believe her  Don't believe her 
 I can't believe her  She'll make your heart break
 She'll give you fever She'll tell you everything but don't believe her
 F perfect stranger She knows the game She'll promise heaven on earth
 She'll make you crazy She's such a teaser
 Says you're the only one but don't believe her She deals in danger
 The girl's insane She'll promise heaven on earth 
 But don't believe her Don't believe her 
 Don't believe her Don't believe her 
 Don't believe her 
Legend:
: normal slide.
7^/^8: legato slide.
8^^7: pull-off.
~: vibrato.
15Fb(15)^13: bend 15 fully and release on 15 then pull-off to 13
X: rake strings.

Scorpions - Dont Believe Her аккорды

guitar chord C
guitar chord Cm

Разбор Scorpions - Dont Believe Her на гитаре

1 Звезда2 Звезды3 Звезды4 Звезды5 Звезд (Пока оценок нет)
Загрузка...

Добавить комментарий

Ваш адрес email не будет опубликован. Обязательные поля помечены *