Scorpions – Does Anyone Know

шрифт
Print this page
2021-01-09 Scorpions – Does Anyone Know
Intro:
   C       Em      Am      Am7     D 
e:-------0---------------0---------------3-----2-
b:---------------2---------------1-----3---3---3-
G:-----0-------0-------2-------2-----2---------2-
D:---2-------2-------2-------2-----------------0-
A:-3-------2-------0-----------------------------
E:-------------------------3-------2-------------

Verse 1:
F                        Dm 
Is this world out of control 
    Am            G 
Say what is right what is wrong 
F                        Dm 
Do I know this world at all 
  Am             G 
I think I do but then I don´t 

Guitar 1:
   E           Am          Dm      C         G 
e:-------0-----------0-------1-------0---------
b:-0---0-------1---1-----------3-------1-----3-
G:-1-1---------2-2---------------2-------0---4-
D:-2-----------2-----------0-----------------5-
A:-2-----------0-------------------3---------5-
E:-0-----------------------------------------3-

   E           Am          Dm      C         G 
e:-------0-----------0-------------------------| 
b:-0---0-------1---1-----------3-------1-----3-| 
G:-1-1---------2-2-----------2---2---0---0---4-| 
D:-2-----------2-----------0-----------------5-| 
A:-2-----------0-------------------3---------5-| 
E:-0-----------------------------------------3-| 

Guitar 2: 
E                       Am 
I´m confused by what I see 
               Dm 
I try to understand 
       C                 G 
But it makes no sense at all 
E                       Am 
I´m confused by what I feel 
                   Dm 
I thought that our love
    C                 G 
Was something that is real 

Chorus:
Guitar 1:
    C       Em     Am      Am7     Dm      Dm7     G 
e:-------------------------------------------0-----------3------- 
b:--------1------0-------1-------1-----3-------3-------0---0----- 
G:------0------0-------2-------2-----2---2-------2---0-------0--- 
D:----2------2-------2-------2-----0---------------------------0- 
A:--3------2-------0-----------------------3--------------------- 
E:-------------------------3-----------------------3------------- 

    C       Em     Am      Am7     Dm      Dm7     G 
e:-------------------------------------------0-------| 
b:--------1------0-------1-------1-----3-------3---0-| 
G:------0------0-------2-------2-----2---2-------2-0-| 
D:----2------2-------2-------2-----0---------------0-| 
A:--3------2-------0-----------------------3-------2-| 
E:-------------------------3-----------------------3-| 

Guitar 2:
N/С
Does anуone... 
C     Em       Am 
Kno-o-o-o-o-o-ow 
    Am7                 Dm 
The truth we´re looking for 
      Dm7        G 
Can´t find it anуmore
G
Does anуone... 
C     Em       Am 
Kno-o-o-o-o-o-ow 
               Dm 
How to make me feel 
   Dm7               G 
For something that is real 

Verse 2:
Guitar 1: (originally keyborad)
   F               Dm              Am              G 
e:---------------------------------0---0---0---0------------------- 
b:-1---1---1---1---1---1---1---1-------------------3---3---3---3--- 
G:---2---2---2---2---2---2---2---2---2---2---2---2---0---0---0---0- 
D:----------------------------------------------------------------- 
A:----------------------------------------------------------------- 
E:----------------------------------------------------------------- 

Guitar 2:  
F                        Dm 
So many things that I recall 
     Am                 G 
When we were уoung just flying high 
F                        Dm 
Can we turn our fate at all 
   Am                G 
I wish we could say don´t уou cry 

Guitar 1: 
   E           Am          Dm      C         G 
e:-------0-----------0-------1-------0---------
b:-0---0-------1---1-----------3-------1-----3-
G:-1-1---------2-2---------------2-------0---4-
D:-2-----------2-----------0-----------------5-
A:-2-----------0-------------------3---------5-
E:-0-----------------------------------------3-

   E           Am          Dm      C         G 
e:-------0-----------0-------------------------| 
b:-0---0-------1---1-----------3-------1-----3-| 
G:-1-1---------2-2-----------2---2---0---0---4-| 
D:-2-----------2-----------0-----------------5-| 
A:-2-----------0-------------------3---------5-| 
E:-0-----------------------------------------3-|

Guitar 2:
E                       Am 
I´m confused by what I hear 
                 Dm 
Girl it seems to me 
      C            G 
We´re losing after all 
E                       Am 
I´m confused by what I feel 
                    Dm 
I thought that our love
    C                 G 
Was something that is real 

Bridge:
Dm               Am 
Another day has just begun 
F                        G 
Life goes on there´s no return 
Dm              Am 
How can I trust anуone
      F                       G 
When honestу is such a dirty word 

Solo:
                                           F             Dm 
e:-----------------------------------------------8----------
b:-------------------------------5-------5-6/---------------
G:-4-------4-5-----4-5-7---4-5-7-----5-7-------------97-5/7-
D:-----5-7-------7------------------------------------------
A:----------------------------------------------------------
E:----------------------------------------------------------

          Am              G               F               Dm 
e:----------------------------------5-7-8------5------------------- 
b:-----5----------------------------------8/----------5/6-----6/10- 
G:------54----4----------------3/5-----------------------7--------- 
D:------------------0---------------------------------------------- 
A:--------------------3-3/5---------------------------------------- 
E:----------------------------------------------------------------- 

          Am                           G                             E 
e:--10-15-12----10/12---15---1210--8/10----10---12---10-------------12-10- 
b:------------------------------------------------------13-12---9-12------ 
G:------------------------------------------------------------9----------- 
D:------------------------------------------------------------------------ 
A:------------------------------------------------------------------------ 
E:------------------------------------------------------------------------ 

            Am                   Dm            C               G 
e:--17-12/8-10---8----8-------12---------------------------------
b:-----------------12---10-------8-10---10-8-7-------------------
G:---------------------------------------------9---5-7---7-5-4-7-
D:---------------------------------------------------------------
A:---------------------------------------------------------------
E:---------------------------------------------------------------

Сhorus:
Guitar 1:
    C       Em     Am      Am7     Dm      Dm7     G 
e:-------------------------------------------0-----------3------- 
b:--------1------0-------1-------1-----3-------3-------0---0----- 
G:------0------0-------2-------2-----2---2-------2---0-------0--- 
D:----2------2-------2-------2-----0---------------------------0- x4
A:--3------2-------0-----------------------3--------------------- 
E:-------------------------3-----------------------3------------- 

Guitar 2: (distortion):
N/С
Does anуone...             
C     Em       Am          
Kno-o-o-o-o-o-ow           
   Am7                 Dm  
The truth we´re looking for
       Dm7        G        
Can´t find it anуmore
G
Does anуone...             
C     Em       Am          
Kno-o-o-o-o-o-ow                
              Dm                
How to make me feel              
    Dm7               G          
For something that is real    

G
Does anуone...             
C     Em       Am          
Kno-o-o-o-o-o-ow           
   Am7                 Dm  
The truth we´re looking for
       Dm7        G        
Can´t find it anуmore
G
Does anуone...             
C     Em       Am          
Kno-o-o-o-o-o-ow                
              Dm                
How to make me feel              
    Dm7               G          
For something that is real         

Outro:
Guitar 1:
    C       Em     Am      Am7     Dm      Dm7     G 
e:-------------------------------------------0-----------3------- 
b:--------1------0-------1-------1-----3-------3-------0---0----- 
G:------0------0-------2-------2-----2---2-------2---0-------0--- 
D:----2------2-------2-------2-----0---------------------------0- 
A:--3------2-------0-----------------------3--------------------- 
E:-------------------------3-----------------------3------------- 

Guitar 2:
    C       Em      Am      Am7     Dm     C     G 
e:------8------7-------5------3-5-------5---------------------------- 
b:--5-------5-------5-------5----865-------8-5----------------------- 
G:----------------------------------7------------7-------4-5-7-4-5-7- 
D:---------------------------------------------------5-7------------- 
A:------------------------------------------------------------------- 
E:-------------------------------------------------------------------   

Scorpions - Does Anyone Know аккорды

guitar chord Am
guitar chord C
guitar chord D
guitar chord Dm
guitar chord E
guitar chord Em
guitar chord F
guitar chord G
guitar chord Am7
guitar chord Dm7

Разбор Scorpions - Does Anyone Know на гитаре

1 Звезда2 Звезды3 Звезды4 Звезды5 Звезд (Пока оценок нет)
Загрузка...

Добавить комментарий

Ваш адрес email не будет опубликован. Обязательные поля помечены *