Rolling Stones – Walking The Dog

шрифт
Print this page
2021-01-31 Rolling Stones – Walking The Dog
walking the dog
 riff 1                 riff 2                 riff 3
 A                      D                      E
---------------------- ---------------------- -------------------|
---------------------- -------13------------- -------15----15----|
-------12------------- -12s14----14-10s12-14- -14s16----14----16-|
-12s14----14-10s12-14- ---------------------- -------------------|
---------------------- ---------------------- -------------------|
---------------------- ---------------------- -------------------|
riff 4                         riff 5
----5----5----5----5--------- -9-9-9-9-9-9-9-9-9-9-|
----5----5----5----5--------- -8-8-8-8-8-8-8-8-8-8-|
-7b---7b---7b---7b---7b8r7--- -9-9-9-9-9-9-9-9-9-9-|
---------------------------9- ---------------------|
----------------------------- ---------------------|
----------------------------- ---------------------|
Intro
(w/riff 1)
A(w/riff 1)
Silver buttons all down her back
See the elephant jumped the fence
How does your garden grow
High hose, tippy toes
He jumped so high, he touched the sky
What with silver bells and cockle shells
She broke the needle and she can sew
He never came back, till the 4th of July
And pretty maids all in a row
Chorus
            D(w/riff 2)                A(w/riff 1)
Walking the dog I'm just a walking the dog
E(w/riff 3)
If you don't know how to do it
D(w/riff 2)                   A(w/riff 4)
I'll show you how to walk the dog
               (w/riff 5)
C'mon now c'mon
Outro
            A
Yeah just a walking
          D
Uh just a walking
          A
Uh just a walking
3x
            E
Now, if you don't know how to do it
     D                        A
I'll show you how to walk the dog
A             A7
-9-9-7-7-5-5-|
-------------|
-9-9-7-7-6-6-|
-------------|
-------------|
-------------|

Rolling Stones - Walking The Dog аккорды

guitar chord A
guitar chord D
guitar chord E
guitar chord A7

Разбор Rolling Stones - Walking The Dog на гитаре

1 Звезда2 Звезды3 Звезды4 Звезды5 Звезд (Пока оценок нет)
Загрузка...

Добавить комментарий

Ваш адрес email не будет опубликован. Обязательные поля помечены *