Rolling Stones – Shattered

шрифт
Print this page
2021-01-12 Rolling Stones – Shattered
SHATTERED
by The Rolling Stones
(Jagger/Richards)
Album: Some Girls
Guitar 1 (Standard Tuning)
Intro
[================]                   [=======]
[=]
|-----------------|-----------------|-----------------|----------------
-|
|-----------------|-----------------|-----------------|----------------
-|
|-----------------|-----------------|-----------------|----------------
-|
|-----------------|-4---4-----4-----|-------------0-0-|-4---4-------4--
-|
|-2-----2-----2---|-0h2---0h2---0-0-|-------2-----0---|-2---2---------
2-|
|-0-0-0-0-0-0-0-0-|-----------------|-0-0-0-0-0-4-----|----------------
-|
    Uh, huh          Shattered          Uh, huh           Shattered
[================]                  [================]
|-----------------|-----------------|-----------------|----------------
-|
|-----------------|-----------------|-----------------|----------------
-|
|-----------------|-----------------|-----------------|----------------
-|
|-----------------|-4---4-------4-4-|-----------------|---4----4--4----
-|
|-2-----2-----2---|-2---2-------2-2-|-2-----2-----X---|-2----2------0-
0-|
|-0-0-0-0-0-0-0-0-|-----------------|-0-0-0-0-0-0-0-0-|----------------
-|
 Love...           still...          Look...           I'm...
|-----------------|-----------------|-----------------|----------------
-|
|-----------------|-----------------|-----------------|----------------
-|
|-----------------|-----------------|-----------------|-2--------------
-|
|-2---2-----------|-4---4-----------|---------------0-|-2---2----------
-|
|-0---0-------0-0-|-2---2-----2-2---|-2---2-------0---|-----0----------
-|
|-----------------|---------------0-|-0---0---4/5-----|----------------
-|
                   I been Shattered                          Shattered
[================]                  [======]
|-----------------|-----------------|-----------------|----------------
-|
|-----------------|-----------------|-----------------|----------------
-|
|-----------------|-----------------|-----------------|----------------
-|
|-----------------|-4-4---4-4---4---|-------------0-0-|-4---4-----4----
-|
|-2-----2-----2---|-2---2---2---2---|-2-----------0---|-0h2---0h2---0--
-|
|-0-0-0-0-0-0-0-0-|-----------------|-0-0-0-0-0-4-----|----------------
-|
VERSE
Friends...         lover's...        Life's...         on the street...
[================]                  [================]
|-----------------|-----------------|-----------------|----------------
-|
|-----------------|-----------------|-----------------|----------------
-|
|-----------------|-----------------|-----------------|----------------
-|
|-----------------|-4---4-----4-----|-----------------|-4---4-----4-4--
-|
|-2-----2-----2---|-0h2---0h2---0---|-2-----2-----2---|-0h2---0h2---0--
-|
|-0-0-0-0-0-0-0-0-|-----------------|-0-0-0-0-0-0-0-0-|----------------
-|
people dressed...  directing traffic  Some kind...            shattered
[================]                  [================]
|-----------------|-----------------|-----------------|----------------
-|
|-----------------|-----------------|-----------------|----------------
-|
|-----------------|-----------------|-----------------|----------------
-|
|-----------------|-4---4-----4-----|-----------------|-4---4-----4-4--
-|
|-2-----2-----2---|-0h2---0h2---0---|-2-----2---------|-0h2---0h2---0--
-|
|-0-0-0-0-0-0-0-0-|-----------------|-0-0-0-0-0-0-0-0-|----------------
-|
END VERSE
Chorus
 Laughter...       sex and...        look at me         I'm in tatters
|-----------------|-----------------|-----------------|----------------
-|
|-----------------|-----------------|-----------------|----------------
-|
|-----------------|-----------------|-----------------|----------------
-|
|-2---2-----2-----|-4-4---4---------|---------------0-|-2-------4p2----
-|
|-0---0-------0-0-|-2-----2---2-2---|-2----2------0---|-0-----0-----0--
-|
|-----------------|---------------0-|-0----0---/4-----|----------------
-|
                    I'm shattered                             Shattered
 [=========]
|-----------------|-----------------|-----------------|----------------
-|
|-----------------|-----------------|-----------------|----------------
-|
|-----------------|-----------------|-----------------|----------------
-|
|---------------X-|-4---4-----4-----|-----------4---4-|---------4---4--
-|
|-2-----2-----0---|-0h2---0h2---2p0-|-2-----2---------|-0h2-2---1/2-2--
-|
|-0-0-0-0-0-4-----|-----------------|-0-0-0-0-0-------|----------------
-|
END Chorus
All this...        chatter          Shmatter...        give it...
                                    [================]
|-----------------|-----------------|-----------------|----------------
-|
|-----------------|-----------------|-----------------|----------------
-|
|-----------------|-----------------|-----------------|----------------
-|
|-----------------|-4-----4-4---4---|-----------------|-4-4-4-4-4-4-4--
-|
|-2-----2-----2---|-2-----2---2-2---|-2-----2-----2---|-2-----2-----2--
-|
|-0-0-0-0-0-0-0-0-|-----------------|-0-0-0-0-0-0-0-0-|----------------
-|
This town's...     tatters shattered      shadoobee
[================]                      [===]
|-----------------|-----------------|-----------------|----------------
-|
|-----------------|-----------------|-----------------|----------------
-|
|-----------------|-----------------|-----------------|----------------
-|
|-----------------|-4-4---4-4-4-4---|-----------------|-4-------4---4-
4-|
|-2-----2-----2---|-2---2-2-----2-2-|---------2---X---|-2-----2-2---2-
2-|
|-0-0-0-0-0-0-0-0-|-----------------|-0-0-0-4-----X-X-|----------------
-|
Work and...       Ain't you...   Suc-cess...            Does it matter?
                                     [================]
|-----------------|-----------------|-----------------|----------------
-|
|-----------------|-----------------|-----------------|-----3----------
-|
|-----------------|---------4-------|-----------------|-----2----------
-|
|-2---2-----------|---------4-------|-----------------|-2---4---4p2----
-|
|-0---0-----------|-2-------2---X---|-2-----2-----2---|-0--------------
-|
|-----------------|---------------0-|-0-0-0-0-0-0-0-0-|----------------
-|
                    I'm Shattered                       Does it matter?
[==============]                    [================]
|-----------------|-----------------|-----------------|----------------
-|
|-----------------|-----------------|-----------------|----------------
-|
|-----------------|-----------------|-----------------|-------4--------
-|
|---------------0-|-4-----4-----4---|-----------------|-4-----4--------
-|
|-2-----2-------0-|-2-2-2-2---2-2---|-2-----2-----2---|-2-----2-----
2p0-|
|-0-X---0-0-4-4---|-----------------|-0-0-0-0-0-0-0-0-|----------------
-|
Solo (there are like five guitars here but i've tabbed the main two
I'll
try to put the other three in later)
(Guitar 1 in Slashes)
  C#5              E5                A5                D5
  /           /    /                 /                 / /
 Guitar 2 (standard tuning)
|-9----9----------|-----------------|-----------------|--10-10-12/14-
12-|
|-9----9--12p9----|-----------------|----14-14---15p14|--10-10---------
-|
|-------------11B-|-r11-9hX-9~------|----14-14--------|--11----12/14-
12-|
|-----------------|------------11---|----14-14-14-----|----------------
-|
|-----------------|-----------------|9/12------12-----|----------------
-|
|-----------------|-----------------|-----------------|----------------
-|
 G5               C                  A5
 /                /                  (guitar 1 plays fill 1 here
)
|-----------------|---------8-10/12-|-----------------|----------------
-|
|-12------12------|-------8---------|-----------------|----------------
-|
|-12-12-12--12-10|-----9-----10/12-|11/141414-
12/1414|13h141414141414-|
|-12-----------10|--10-------------|11/141414----
1414|13h141414141414-|
|-----------------|-----------------|-----------------|----------------
-|
|-----------------|-----------------|-----------------|----------------
-|
 C#5               E5                A5                D5
 /                 /                 /      /          /       /
|X---9------------|-----------------|-----------------|-----10----10---
-|
|X-9---12-12------|----12-----------|-----------------|-----10----10---
-|
|---------11B-----|r11-11br11-11~-9~|---14-14-14-14-14|--11-------10-
11-|
|-----------------|-----------------|---14-14-14------|----------------
-|
|-----------------|-----------------|-----------------|----------------
-|
|-----------------|-----------------|-----------------|----------------
-|
                                                         Oh
 G5                C5                                  B5
 /     /           /      /          (guitar 1 plays fill 2 here
)
|-------------7---|---------8-8-8-8-|-----------------|----------------
-|
|--------8----8---|---------8-8-8-8-|-----------------|---3-4-4-3-4-3--
-|
|--0-7------------|---------9-9-9-9-|-----9-------9-9-|---3-4-4-3-4-3--
-|
|--0-7-9----------|--------10101010-|---9-9-9---9-----|----------------
-|
|-----------------|------10---------|---7----10-------|----------------
-|
|-----------------|----/8-----------|-----------------|----------------
-|
Fill 1
|-----------------|-----------------|
|-----------------|-----------------|
|-----------------|-----------------|
|-----------------|---------2-------|
|---5---0---------|---------0-2-----|
|-----3p0---------|-----------3p0---|
Fill 2
|-----------------|-----------------|
|-----------------|-----------------|
|-----------------|-----------------|
|-----------------|-----------------|
|-----------------|-9---------9-9---|
|-0-2---0---0-4-5-|-7---------7-7---|
There is another guitar from the end of the solo to the end of the song,
but I haven't tabbed it.
Now play VERSE, then Chorus, VERSE six times, then play 1st bar of
Chorus, and then Fill 3.
Fill 3
|-----------------|-----------------|
|-----------------|-----------------|
|-----------------|-----------------|
|-4---4-4-4---4---|-----------------|
|-2---2-2-2---2/11|-----------------|
|-----------------|-0---------------|
[=====] Pick Hand Palm Muted
h hammer on
p pull off
X Fret Hand Muted
B whole step bend
b half step bend
r release
/ slide up
 slide down
~ vibrato
1414 is -14-14-

Rolling Stones - Shattered аккорды

guitar chord C
guitar chord E5
guitar chord G5
guitar chord A5
guitar chord C5
guitar chord D5
guitar chord C#5

Разбор Rolling Stones - Shattered на гитаре

1 Звезда2 Звезды3 Звезды4 Звезды5 Звезд (Пока оценок нет)
Загрузка...

Добавить комментарий

Ваш адрес email не будет опубликован. Обязательные поля помечены *