Red Hot Chili Peppers – Lets Make Evil

шрифт
Print this page
2021-01-08 Red Hot Chili Peppers – Lets Make Evil
Artist: Red Hot Chili Peppers
Song: Let's Make Evil
Album: My Friends single (1995)
Notes:
~ - Let Ring
h - Hammer-On
B - Bend
Verse 1:
G|------------------------------------------------------|
D|------------------------------------------------------|
A|------------------------------------------------------|
E|--(0-2)----0-0-2----0-0-2----0-0-2----0-0-2----0-0-2--| (x3)
    (   ) - First time only
G|------------------------------------|
D|------------------------------------|
A|-----------0------------2-4---------|
E|--0-0-2------2---0-0-2-------0-0-2--|
G|----------------------------------------|
D|----------------------------------------|
A|----------------------------------------|
E|--0-0-2----0-0-2----0-0-2----0-0-2---2--|
  Rest
G|-----------------------------------------------------|
D|-----------------------------------------------------|
A|-----------------------------------------------------|
E|-0-0-2----0-0-2----0-0-2----0-0-2----0-0-2----0-0-2--| (x4)
Chorus: Flea is doing more than this but I can't tell what it is
        so just make up your own fills
G|------------------------------------|
D|------------------------------------|
A|---7~-------5~-------4~-------5~----|
E|------------------------------------| (x2)
G|----------------------------|
D|----------------------------|
A|-7-7-7-7-7-7-7-7-7-7-7-7-7--|
E|----------------------------|
Verse 2:
G|----------------------------------------------------|
D|----------------------------------------------------|
A|----------------------------------------------------|
E|--0-2----0-0-2----0-0-2----0-0-2----0-0-2----0-0-2--|
G|-----------------------|
D|--4-2------------------|
A|------4-3-2-------2-4--|
E|------------4-3-2------|
G|------------------------------------|
D|------------------------------------|
A|------------------------------------|
E|--0-0-2----0-0-2----0-0-2----0-0-2--| (x2)
G|------------------------------------|
D|------------------------------------|
A|-----------0------------2-4---------|
E|--0-0-2------2---0-0-2-------0-0-2--|
G|---------------------------------------------|
D|---------------------------------------------|
A|---------------------------------------------|
E|--0-0-2----0-0-2----0-0-2----0-0-2----0-0-2--| (x2)
G|------------------------------------|
D|------------------------------------|
A|------------------------------------|
E|--0-0-2----0-0-2----0-0-2----0-0-2--| (x2)
G|------------------------------------|
D|------------------------------------|
A|-----------0------------2-4---------|
E|--0-0-2------2---0-0-2-------0-0-2--|
G|---------------------------------------------|
D|---------------------------------------------|
A|---------------------------------------------|
E|--0-0-2----0-0-2----0-0-2----0-0-2----0-0-2--| (x2)
G|------------|
D|------------|
A|------------|
E|--0-0-2-----|
Chorus:
G|------------------------------------|
D|------------------------------------|
A|---7~-------5~-------4~-------5~----|
E|------------------------------------|
G|-------------------------------------------------|
D|---------------------------------5/7-7-7-7-7-7-7-|
A|---7~-------5~-------4~-------5~-----------------|
E|-------------------------------------------------|
Interlude:
G|--------------------------------------|
D|-4-4-4-2-4-4-2-4-4-4-2-4-4-2-4-4-2-2--|
A|--------------------------------------|
E|--------------------------------------|
G|--------------------------------------|
D|-6-6-6-4-6-6-4-6-6-6-4-6-6-4-6-6-4-4--|
A|--------------------------------------|
E|--------------------------------------|
G|-----------------------------------------------------------------------|
D|-7-7-7-5-7-7-5-7-7-7-5-7-7-5-7-7-5-7-7-7-5-7-7-5-7-7-7-5-7-7-5-7-7-5-5-|
A|-----------------------------------------------------------------------|
E|-----------------------------------------------------------------------|
G|--------------------------------------|
D|-4-4-4-2-4-4-2-4-4-4-2-4-4-2-4-4-2-2--|
A|--------------------------------------|
E|--------------------------------------|
G|--------------------------------------|
D|-6-6-6-4-6-6-4-6-6-6-4-6-6-4-6-6-4-4--|
A|--------------------------------------|
E|--------------------------------------|
G|-------------------------------------------------------5---------------|
D|-7-7-7-5-7-7-5-7-7-7-5-7-7-5-7-7-5-7-7-7-5-7-7-5-7-7-7---7-7-5-7-7-5-5-|
A|-----------------------------------------------------------------------|
E|-----------------------------------------------------------------------|
G|--------------------------------------|
D|-4-4-4-2-4-4-2-4-4-4-2-4-4-2-4-4-2-2--|
A|--------------------------------------|
E|--------------------------------------|
G|--------------------------------------|
D|-6-6-6-4-6-6-4-6-6-6-4-6-6-4-6-6-4-4--|
A|--------------------------------------|
E|--------------------------------------|
G|-------------------------------------------------------5---------------|
D|-7-7-7-5-7-7-5-7-7-7-5-7-7-5-7-7-5-7-7-7-5-7-7-5-7-7-7---7-7-5-7-7-5-5-|
A|-----------------------------------------------------------------------|
E|-----------------------------------------------------------------------|
G|--------------------------------------|
D|-4-4-4-2-4-4-2-4-4-4-2-4-4-2-4-4-2-2--|
A|--------------------------------------|
E|--------------------------------------|
G|--------------------------------------|
D|-6-6-6-4-6-6-4-6-6-6-4-6-6-4-6-6-4-4--|
A|--------------------------------------|
E|--------------------------------------|
G|-----------------------------------------------------------------------|
D|-7-7-7-5-7-7-5-7-7-7-5-7-7-5-7-7-5-7-7-7-5-7-7-5-7-7-7-5-7-7-5-7-7-5-5-|
A|-----------------------------------------------------------------------|
E|-----------------------------------------------------------------------|
Verse 3:
G|------------------------------------------------------|
D|------------------------------------------------------|
A|------------------------------------------------------|
E|--(0-2)----0-0-2----0-0-2----0-0-2----0-0-2----0-0-2--| (x3)
    (   ) - First time only
G|------------------------------------|
D|------------------------------------|
A|-----------0------------2-4---------|
E|--0-0-2------2---0-0-2-------0-0-2--|
G|----------------------------------------|
D|----------------------------------------|
A|----------------------------------------|
E|--0-0-2----0-0-2----0-0-2----0-0-2---2--|
 Drum Fill 
G|-------------------------------------|
D|-------------------------------------|
A|-------------------------------------|
E|---0-0-2----0-0-2----0-0-2----0-0-2--| (x2)
  
G|------------------------------------|
D|------------------------------------|
A|-----------0------------2-4---------|
E|--0-0-2------2---0-0-2-------0-0-2--|
G|--------------------------------------------|
D|--------------------------------------------|
A|--------------------------------------------|
E|--0-0-2----0-0-2----0-0-2----0-0-2---0-0-2--| (x2)
Chorus:
G|------------------------------------|
D|------------------------------------|
A|---7~-------5~-------4~-------5~----|
E|------------------------------------|
G|-------------------------------------------------|
D|---------------------------------5/7-7-7-7-7-7-7-|
A|---7~-------5~-------4~-------5~-----------------|
E|-------------------------------------------------|
Guitar Solo:
G|--------------------------------------|
D|-4-4-4-2-4-4-2-4-4-4-2-4-4-2-4-4-2-2--|
A|--------------------------------------|
E|--------------------------------------|
G|--------------------------------------|
D|-6-6-6-4-6-6-4-6-6-6-4-6-6-4-6-6-4-4--|
A|--------------------------------------|
E|--------------------------------------|
                                  Fills
G|----------------------------|-----------------------------|
D|-7-7-7-5-7-7-5-7-7-7-5-7-7-5|-5-7-5-7-7-7-5-7-7-5-7-7-5-5-|
A|----------------------------|-----------------------------|
E|----------------------------|-----------------------------|
                                  
                            2 |-----------------------------|
                              |-7-7-5/9-9-9-9-9-8-8-8-8-7-7-|
                              |-----------------------------| 
                              |-----------------------------|
                            3 |-----------------------------|
                              |-7-7-5-7-7-7-5-7-7-5-7-7-5-5-|
                              |-----------------------------| 
                              |-----------------------------|
                                                     
                            4 |---------------------------------------|
                              |-7/9-9-9-10-10-10-10-12-12-12-15-15-15-|
                              |---------------------------------------|
                              |---------------------------------------|
                            5 |------------------------------|
                              |-7/9-9-9-11-11-11-9-9-9-7-7-7-|
                              |------------------------------|
                              |------------------------------|
                            6 |------------------|
                              |------------------|
                              |---------2-2-4-4--|
                              |-2-2-4-4----------|
                            7 |---------------------------------------|
                              |-7/9-9-9-10-10-10-10-11-11-11-10-10-10-|
                              |---------------------------------------|
                              |---------------------------------------|
                            8 |------------------------------------------|
                              |-7/15-15-14-14-12-12-9-9h11-9h11-9h11-----|
                              |--------------------------------------7h9-|
                              |------------------------------------------|
Outro:
G|---------------------------------------|
D|-4-2-4-2-4-2-4-2-4-6-4-6-4-6-4-6-4-6-4-|
A|---------------------------------------|
E|---------------------------------------|
G|---------------------------------------|
D|-7-5-7-5-7-5-7-5-7-9-7-9-7-9-7-9-7-9-7-|
A|---------------------------------------|
E|---------------------------------------|
G|---------------------------------------|
D|-4-2-4-2-4-2-4-2-4-6-4-6-4-6-4-6-4-6-4-|
A|---------------------------------------|
E|---------------------------------------|
G|--------------------------------------------------------|
D|-7-5-7-5-7-5-7-5/16-16-16-14-14-14-11-11-11-9-9-9-9-----|
A|--------------------------------------------------------|
E|----------------------------------------------------2~~-|
                                                      B

Red Hot Chili Peppers - Lets Make Evil аккорды

guitar chord B

Разбор Red Hot Chili Peppers - Lets Make Evil на гитаре

1 Звезда2 Звезды3 Звезды4 Звезды5 Звезд (Пока оценок нет)
Загрузка...

Добавить комментарий

Ваш адрес email не будет опубликован. Обязательные поля помечены *