Red Hot Chili Peppers – Cabron

шрифт
Print this page
guitar chord A
guitar chord Bm
guitar chord D
guitar chord G
2020-10-14 Red Hot Chili Peppers – Cabron
Intro: D Bm | D Bm 
					       A 
E|---3----------3-----------3--------3----------0-
B|-------0----------0----------0----------0-----2-
G|-0---------0------------0-------0-------------2-
D|----------------------------------------------2-
A|---------------------------------------------0--

Intro *:
  А	         D	      А 	    Bm	
E|-2--0-----------2-2-2-2------0-------------2-2-2-2-
B|--------3--2----3-3-3-3---------3--2-------3-3-3-3-	
G|---------------2-2-2-2----------------2---4-4-4-4-- x2
D|---------------0-0-0-0--------------------4-4-4-4--
A|---------------------------------------------------

Chorus:
A   D     A  Bm
Cabron   Cabron 
A   D     A  Bm
Cabron   Cabron

Verse 1:
A D                A 
I see you in the park 
      Bm                       A 
You´re always wearing dark or blue 
D
My dawg and me 
A       Bm                  A
And anyone from any other crew 
G                      A
I am small but I am strong 
A
I´ll get it on with you 

D         A    Bm
If you want me to 
A D           A  Bm
What else can I do 
A G                                 A 
Everyone would take a cue from anything you do 
D           A    Bm
If you want them to 
A D        A    Bm
What else can it do 

A G                        
I dont´ want to fight 
A
I want to get along with you 
G                                    
This time of nights for singing songs 
            A      
About the love from you 

  А	         D	      А 	    Bm	
E|-2--0-----------2-2-2-2------0-------------2-2-2-2-
B|--------3--2----3-3-3-3---------3--2-------3-3-3-3-	
G|---------------2-2-2-2----------------2---4-4-4-4-- x2
D|---------------0-0-0-0--------------------4-4-4-4--
A|---------------------------------------------------

Chorus:
A   D     A  Bm
Cabron   Cabron 
A   D     A  Bm
Cabron   Cabron

Verse 2:
A D                A 
I come around and make peace 
  Bm                  A 
Get down have a barbecue 
D
Let´s keep the moon awake 
A       Bm            A
And do electric boogaloo 
G                      A
I am small but I am strong 
A
You see I´m just like you 

D         A   Bm
If you only knew 
A D           A  Bm
That I´m just like you 
A G                                 A 
All the world would take a cue from anything you do 
D          A Bm
If you only knew 
A D        A    Bm
That they´re just like you 

A G                        
I dont´ want to fight 
A
I want to get along with you 
G                                    
This time of nights for singing songs 
            A      
About the love from you 

  А	         D	      А 	    Bm	
E|-2--0-----------2-2-2-2------0-------------2-2-2-2-
B|--------3--2----3-3-3-3---------3--2-------3-3-3-3-	
G|---------------2-2-2-2----------------2---4-4-4-4-- x4
D|---------------0-0-0-0--------------------4-4-4-4--
A|---------------------------------------------------

A G                        
I dont´ want to fight 
A
I want to get along with you 
G                                    
This time of nights for singing songs 
            A      
About the love from you 

Chorus:
A   D     A  Bm
Cabron   Cabron 
A   D     A  Bm
Cabron   Cabron
A   D     A  Bm
Cabron   Cabron 
A   D     A  Bm
Cabron   Cabron

D         A   Bm
If you want me too 
A D           A  Bm
What else can I do 
A G                                 A 
Cause I´m just like you if you only knew 

Chorus:
A   D     A  Bm
Cabron   Cabron 
A   D     A  Bm
Cabron   Cabron
A   D     A  Bm
Cabron   Cabron 
A   D     A  Bm
Cabron   Cabron

Red Hot Chili Peppers - Cabron аккорды

guitar chord A
guitar chord Bm
guitar chord D
guitar chord G

Разбор Red Hot Chili Peppers - Cabron на гитаре

1 Звезда2 Звезды3 Звезды4 Звезды5 Звезд (Пока оценок нет)
Загрузка...

Добавить комментарий

Ваш адрес email не будет опубликован. Обязательные поля помечены *