RadioHead – No Surprises

шрифт
Print this page
2020-08-03 RadioHead – No Surprises
F                          Dm
--5-------------          --5-----------------
--------6-------          -----------6--------
----5------5----          ------7---------7---
----------------          --------------------
----------------          --------------------
----------------          --------------------

A#                             Rhy. Fill  1:
-6-------------------         ----------3-------
--------6------------         ------6-----------
----7------7---------         -3--6-------------
---------------------         ------------------
---------------------         ------------------
---------------------         ------------------

Rhy. Fill  2:
------------------------
--6-5----------------6--
---------------5--------
-------5--5h7-----------
------------------------
------------------------

Rhy. Fill  3:
-----------------------------------------1--0-
--3--1---1------------------------------------
-------------3---3---2---0--------------------
-----------------------------0----0-----------
----------------------------------------------
----------------------------------------------

INТRО: F F F  Rhy. fill 1
       F F F  Rhy. fill 1


  F     F     F       F      Dm  Dm
А heart thats full up like a land fill
  Dm       Dm     A#    A#
А job that slowly kills you
Rhy. fill 2
Bruises that won't heal

F F F   Rhy. Fill 1


F    F      F     F
I'll take a quiet life
  Dm  Dm       Dm      Dm
А handshake of carbon monoxide
Rhy. Fill 3
And no alarms and no surprises
Rhy. Fill 3
No alarms and no surprises
Rhy. Fill 3
No alarms and no surprises
F  F  F  Rhy. fill 1
Please.....

F   F   F  Rhy. Fill  1
Silence
F   F   F  Rhy. fill 1
Silence

F    F      F     F
This is my final fit
  Dm  Dm       Dm   Dm
My final Belly-ache
Rhy. Fill 3
With No alarms and no surprises
Rhy. Fill 3
No alarms and no surprises
Rhy. Fill 3
No alarms and no surprises
F  F  F  Rhy. fill 1
Please

BRIDGE:
   C                                A#
---------------------------------------------6--5---3-------------
------5-------5h6p5--------------------3----------------6---------
----5-----5----------5------5--------3----3-----------------------
--5---------------------5----------3------------------------------
------------------------------------------------------------------
------------------------------------------------------------------

   C                                A#
---------------------------------------------6--5---3-------------
------5-------5h6p5--------------------3----------------6---------
----5-----5----------5------5--------3----3-----------------------
--5---------------------5----------3------------------------------
------------------------------------------------------------------
------------------------------------------------------------------
  Gm(downstroke)
---3-----------------------------
---3---------------------6---8---
---3---------------6--8----------
---5----5/7--5--7----------------
---5-----------------------------
---3-----------------------------

F    F      F     F
Such a pretty house
  Dm  Dm       Dm      Dm
And such a pretty garden
Rhy. Fill 3
With No alarms and no surprises
Rhy. Fill 3
No alarms and no surprises
Rhy. Fill 3
No alarms and no surprises
F  F  F  Rhy. fill 1   F  F  F  Rhy. Fill 1
Please

RadioHead - No Surprises аккорды

guitar chord C
guitar chord Dm
guitar chord F
guitar chord A#

Разбор RadioHead - No Surprises на гитаре

1 Звезда2 Звезды3 Звезды4 Звезды5 Звезд (Пока оценок нет)
Загрузка...

Добавить комментарий

Ваш адрес email не будет опубликован. Обязательные поля помечены *