RadioHead – Nice Dream

шрифт
Print this page
2020-11-29 RadioHead – Nice Dream
Intro: Cmaj7 Badd11 Bbadd#11 Aadd9
       Cmaj7 Badd11 Bbadd#11 Aadd9 Badd11/A Aadd9 Badd11/A

Verse 1:
     Aadd9                    D6/9
They love me like I was their brother,
                        E7sus4 E7
They protect me, listen to me
     Aadd9              D6/9
They dug me my very own garden,
                          E7sus4 E7
Gave me sunshine, made me happy

Chorus 1:
     Bm11        E7     Aadd9 Badd11/A Aadd9 Badd11/A
Nice dream, nice dream, nice dream.

Verse 2:
  Aadd9                      D6/9
I call up my friend the good angel
                       E7sus4   E7
But she's out with her answerphone
    Aadd9                         D6/9
She say's that she'd love to come help but
               E7sus4        E7
the sea would electrocute us all

Chorus 2:
     Bm11        E7          Aadd9       B11/F#
Nice dream, nice dream, nice dream, nice dream,
     Bm11        E7          Aadd9       B11/F#
Nice dream, nice dream, nice dream, nice dream, 
      Bm11        Bbadd#11
Nice dream, nice dream.

Instrumental: Asus2 Bsus4 G6/C D6sus2 }x3
              Asus2 Bsus4 G6/C

Outro: Bm11 B9sus4 E7sus4 Aadd9/E
       Aadd9 B11/F# | Bm11 B9sus4 E7sus4 E7

     Aadd9       B11/F#       Bm11    Asus4/Bb Aadd9
Nice dream, nice dream, nice dream, nice dream
____________________________+____
Intro:
e|-------------------------|
B|-----2----------0--------|
G|-------2-----------0-----| x2
D|---2------2--1--------1--|
A|-------------------------| 
E|-------------------------|

Bridge:
e|------------------------------------------------------|
B|--0--3--5s4s5---0--3--5s4------0--3--5s4s5---0--3--5s4|
G|--------------------------2---------------------------|
D|------------------------------------------------------|
A|------------------------------------------------------|
E|------------------------------------------------------|

RadioHead - Nice Dream аккорды

guitar chord E7

Разбор RadioHead - Nice Dream на гитаре

1 Звезда2 Звезды3 Звезды4 Звезды5 Звезд (Пока оценок нет)
Загрузка...

Добавить комментарий

Ваш адрес email не будет опубликован. Обязательные поля помечены *