RadioHead – 2 2 5

шрифт
Print this page
2020-12-28 RadioHead – 2 2 5
Drop-d tuning

Intro (w/ channel switching):
  D5
e---|
B---|
G---|
D-0-|
A-0-|
D-0-|

Verse: with variation : (“are you such a dreamer?...”)
  Fm                        Fmaj7sus2
e-------------------------------------------------------
B-------------------------------------------------------
G-1------------1------------0------------0--------------
D----3-------3----3-------3----3-------3----3-------3--- x2
A------3---3--------3---3--------3---3--------3---3-----
D--------3------------3------------2------------2-------

(“where two and two always make five...”)
  F7                        Dm           Gm
e-----------------------------------------------------
B-----------------------------------------------------
G-2------------2------------2------------3------------
D----3-------3----3-------3----3-------3----5-------5-
A------3---3--------3---3--------5---5--------5---5---
D--------1------------1------------0------------5-----

   F6         C
e----------------------------
B----------------------------
G-------------0------------0-
D---3-------3----2-------2---
A-----5---5--------3---3-----
D-3-----3------------2-------

Verse: arpeggios x2

Pre-Chorus: (“it’s the devil’s way now...”)
e-----------------------------------
B-9--8--6--8----6-----11--6---11--8-
G-----------------------------------
D----------------------------------- x2
A-----------------------------------
D-----------------------------------

Chorus: (lead plays pre-Chorus riff over top)
   (“payin’ attention... payin’ attention...”
  Fm   Fmaj7sus2   C#     C     Eb     C#     C
e-----------------------------------------------
B-9------8---------6------5-----8------6------5-
G-10-----10--------6------5-----8------6------5-
D-10-----10--------6------5-----8------6------5-
A-8------7---------4------3-----6------4------3-
D-----------------------------------------------

Outro: (very sharp sounding)
  G#6        A#6 G#6        A#6 G7 
e-------------------------------------------------------
B-6--6--x-x---8--6--6--x-x---8--6--6-x-x-6--6--6--x-x-6-
G-------------------------------------------------------
D------------------------------------------------------- x2
A-------------------------------------------------------
D-6--6--x-x---8--6--6--x-x---8--5--5-x-x-5--5--5--x-x-5-

(“i try to sing along but the music’s all wrong...”)
  C#6       G7     C#6        G5/7
e----------------------------------------------------
B-11--11-11-6--6-6-11-11-11-6-6-6--------6-6-------6-
G----------------------------------------------------
D-----------------------------5-5-x-x-x--5-5-x-x-x-5-
A-----------------------------5-5-x-x-x--5-5-x-x-x-5-
D-11--11-11-5--5-5-11-11-11-5-5-5-x-x-x--5-5-x-x-x-5-

RadioHead - 2 2 5 аккорды

guitar chord C
guitar chord Dm
guitar chord Fm
guitar chord Gm
guitar chord C#
guitar chord Eb
guitar chord G7
guitar chord D5
guitar chord G#6

Разбор RadioHead - 2 2 5 на гитаре

1 Звезда2 Звезды3 Звезды4 Звезды5 Звезд (Пока оценок нет)
Загрузка...

Добавить комментарий

Ваш адрес email не будет опубликован. Обязательные поля помечены *