Queen – Spread Your Wings

шрифт
Print this page
guitar chord A
guitar chord Bm
guitar chord D
guitar chord E
guitar chord Em7
guitar chord G
guitar chord Gm
guitar chord E7
guitar chord C7
guitar chord F#
2020-09-02 Queen – Spread Your Wings
 D
 Sammy was low 
 E7
 Just watching the show 
 G        Gm     D
 Over and over again

 D 
 Knew it was time
 E7
 He`d made up his mind
 G        Gm     D
 To leave his dead life behind
 
     Bm               
 His boss said to him 
 Bm/A Bm/G#             
 "Boy you`d better begin 
 G                  A             D
 To get those crazy notions right out of your head 
 Em7              C7
 Sammy who do you think that you are? 
 D                   E       Gm             D
 You should`ve been sweeping up the Emerald Bar" 
 D                     Bm
 Spread your wings and fly away 
 E7         A
 Fly away, far away
 
 D
 Spread your little wings 
 E7
 And fly away
 G        Gm     D
 Fly away, far away 
 Gm                    
 Pull yourself together 
          D
 `Cos you know you should do better 
 xx0330                  D
 That`s because you`re a free man
 
 ---------2--
 ---------3--
 ---0---0-2--
 --0---0--0--
 -1--3-------
 ------------
 
 Bm                           Bm/A         Bm/G#
 He spends his evenings alone in his hotel room
 A                                F#sus4          F#
 Keeping his thoughts to himself, he`d be leaving soon
 Bm                           Bm/A Bm/G# 
 Wishing he was miles and miles away
 A                                F#sus4        F#
 Nothing in this world, nothing would make him stay
 
 G A D xx0333 xx0434 E A
 
 D
 Since he was small
 E7
 Had no luck at all
 G        Gm     D
 Nothing came easy to him

 D
 Now it was time
 E7
 He`d made up his mind
 G        Gm     D
 "This could be my last chance"

     Bm               
 His boss said to him, 
 Bm/A Bm/G#   
 "Now listen boy!
 G       A           D
 You`re always dreaming 
 Em7              C7
 You`ve got no real ambition, you won`t get very far
 D                   E       Gm     D
 Sammy boy, don`t you know who you are?
 D                     Bm
 Why can`t you be happy at the Emerald Bar?"
  E7     A
 So honey
 
 D
 Spread your little wings 
 E7
 And fly away
 G        Gm     D
 Fly away, far away 
 Gm                    
 Pull yourself together 
          D
 `Cos you know you should do better 
 xx0330                  D
 That`s because you`re a free man

Solos:
 1`54"
e|-------------------------------------------------------------------------------|
B|-10b12----12r_10p8-12-12b14----14r_12p10-13b15----15r_13p10-13b15----15r_13p12-|
G|-------------------------------------------------------------------------------|
D|-------------------------------------------------------------------------------|
A|-------------------------------------------------------------------------------|
E|-------------------------------------------------------------------------------|
 
 |-----------------------------------------------|
 |-13b15----15r_13p12-15b17vr15-12---------------|
 |---------------------------------13------------|
 |------------------------------------14-12-11v--|
 |-----------------------------------------------|
 |-----------------------------------------------|
 
 3`02"
 |-------------------------------------------------------------------------------|
 |-------------------------------------------------------------------------------|
 |-11__r9p7------------7--------------------------9b11__r------------------------|
 |----------9-7------------9-7-___------------7----------------------------------|
 |-----------------7h9---------9p75---7/9-----------------/5-----5-------7-5-----|
 |------------------------------------------------------------------7-7-------7--|
 
 |-------------------------------------------------------|
 |----------------------------------10b11v----10v----3---|
 |---------------------7---10r9-7------------------------|
 |-----------------7-9-----------------------------------|
 |-5-5-----5---7/9---------------------------------------|
 |-----7-------------------------------------------------|
 
 3`29"
 |----------------------------------------------------------|
 |----------------------------------------------------------|
 |---------7----7p6-----------7---7-7p6__--------7---9b11--|
 |----------------------------------------------------------|
 |-5---7/9------------5---7/9-------------5---7/9-----------|
 |----------------------------------------------------------|
 
 |---------------10______---------------------------------------------|
 |--------------------10_------------------------------7-------7h8p7--|
 |-------7--9b11_________--11r9p7---------7-7----7-7-------7----------|
 |-7--9-----------------------------------7-7----7-9------------------|
 |--------------------------------5---7/9-----------------------------|
 |--------------------------------------------------------------------|
 
 |----7------------------___-------7--------7--9-------10--10--------7-----------|
 |-------7--8----8-------8p7-----7---8------------8------------7--------10-------|
 |----------------------------7---9------9------------------------7---------7----|
 |-9------------------9----------------------------------------------------------|
 |-------------------------------------------------------------------------------|
 |-------------------------------------------------------------------------------|
 
 |-10----7---------------10----9--7-----------5----------------------|
 |----------10-----------------------7-----7--------7p5-----7p5------|
 |--------------7--7------------------------------------7-------7----|
 |-------------------------------------------------------------------|
 |-------------------------------------------------------------------|
 |-------------------------------------------------------------------|
 
 |----------------------------------------------10--------------|
 |-10--------10---8---7----------------------7--------7--7p5----|
 |----------------------------7--7h9---7--9------------------7--|
 |-----7--------------------7-----------------------------------|
 |--------------------------------------------------------------|
 |--------------------------------------------------------------|
 
 |-------5--------------10-----___------------10--------------------------|
 |-5--------5--------7------7--7p5---------7---------7---7p5--------------|
 |-------------7--9------------------7--9--------------------7----7p4-7---|
 |----7-------------------------------------------------------------------|
 |------------------------------------------------------------------------|
 |------------------------------------------------------------------------|

                                                                                          gradual fade out
 |---------------------7--9--10--------------14--14-------------14-14-14------------------------14--------|
 |-----------7--8--10-------------------------------------------------------------------------------------|
 |-----7--9------------------------11--12/14-14------14---------14-14-14------14------------14--------14..|
 |-7h9-----------------------------------------------------12-------------12------12--12------------------|
 |--------------------------------------------------------------------------------------------------------|
 |--------------------------------------------------------------------------------------------------------|

Queen - Spread Your Wings аккорды

guitar chord A
guitar chord Bm
guitar chord D
guitar chord E
guitar chord Em7
guitar chord G
guitar chord Gm
guitar chord E7
guitar chord C7
guitar chord F#

Разбор Queen - Spread Your Wings на гитаре

1 Звезда2 Звезды3 Звезды4 Звезды5 Звезд (1 оценок, среднее: 5,00 из 5)
Загрузка...

Добавить комментарий

Ваш адрес email не будет опубликован. Обязательные поля помечены *