Queen – Radio Gaga

шрифт
Print this page
2021-03-23 Queen – Radio Gaga
Guitar 1: first Chorus (2:04) (let ring throughout, clean)
  1 + 2 + 3 + 4 +  1 + 2 + 3 + 4 +  1 + 2 + 3 + 4 +  1 + 2 + 3 + 4 +
e|--------1-------|----1-----------|----1-----------|----1---------|
b|----1-------1---|--------1-------|--------1-------|--------1-----|
g|----------------|3---------2-----|3---------2-----|3---------2---| x2
d|----------------|------------3---|------------3---|------------3-|
a|----------------|----------------|----------------|--------------|
E|----------------|----------------|----------------|--------------|

1 + 2 + 3 + 4 +  1 + 2 + 3 + 4 +  1 + 2 + 3 + 4 +
----------------|----------------|5---------------|
8---------------|3-------5-------|6---------------|
8---------------|3-------5-------|7---------------|
8---------------|3-------5-------|7---------------|
6---------------|1-------3-------|5---------------|
----------------|----------------|----------------|

Chorus 2: (3:49)
1 + 2 + 3 + 4 +  1 + 2 + 3 + 4 +  1 + 2 + 3 + 4 +  1 + 2 + 3 + 4 +
--------1-------|----1-----------|----1-----------|----1-----------|
----1-------1---|--------1-------|--------1-------|--------1-------|
----------------|3---------2-----|3---------2-----|3---------2-----|
----------------|------------3---|------------3---|------------3---|
----------------|----------------|----------------|----------------|
----------------|----------------|----------------|----------------|

1 + 2 + 3 + 4 +  1 + 2 + 3 + 4 +
----------------|----------------|
8---------------|3---------------|
8---------------|3---------------|
8---------------|3---------------|
6---------------|1---------------|
----------------|----------------|

Solo:
Guitar 2: (Clean, with echo/delay, play w/ slide, let ring)
 1 + 2 + 3 + 4 +  1 + 2 + 3 + 4 +
e----------------|----------------|
h------------6---|13--------------| 
g----------------|----------------| x2
d----------------|----------------|
a----------------|----------------|
e----------------|----------------|

1 + 2 + 3 + 4 +  1 + 2 + 3 + 4 +  1 + 2 + 3 + 4 +  1 + 2 + 3 + 4 +
----------------|----------------|----------------|----------------|
------------6---|15--------------|--------17------|18--------------|
----------------|----------------|----------------|----------------|
----------------|----------------|----------------|----------------|
----------------|----------------|----------------|----------------|
----------------|----------------|----------------|----------------|

                 5:03
1 + 2 + 3 + 4 +  1 + 2 + 3 + 4 +  1 + 2 + 3 + 4 +
----------------|----------------|13--------------|
17------15------|--13------------|----------------|
----------------|----------------|----------------|
----------------|----------------|----------------|
----------------|----------------|----------------|
----------------|----------------|----------------|

3 bars break, then:
1 + 2 + 3 + 4 +  1 + 2 + 3 + 4 +
----------------|----------------|
------------6---|13--------------|
----------------|----------------| x2
----------------|----------------|
----------------|----------------|
----------------|----------------|

1 + 2 + 3 + 4 +  1 + 2 + 3 + 4 +  1 + 2 + 3 + 4 +  1 + 2 + 3 + 4 +
----------------|----------------|------------12--|13--------------|
------------6---|15--------------|----------------|----------------|
----------------|----------------|----------------|----------------|
----------------|----------------|----------------|----------------|
----------------|----------------|----------------|----------------|
----------------|----------------|----------------|----------------|

1 + 2 + 3 + 4 +  1 + 2 + 3 + 4 +  1 + 2 + 3 + 4 +  1 + 2 + 3 + 4 +
15--------------|17--------------|17------15--17--|18--------------|
----------------|----------------|----------------|----------------|
----------------|----------------|----------------|----------------|
----------------|----------------|----------------|----------------|
----------------|----------------|----------------|----------------|
----------------|----------------|----------------|----------------|

1 + 2 + 3 + 4 +  1 + 2 + 3 + 4 +
20--------------|13--------------|
----------------|----------------|
----------------|----------------|
----------------|----------------|
----------------|----------------|
----------------|----------------|
______________________

        F
        I'd sit alone and watch your light
	Gm
	My only friend through teenage nights
	Bb
	And everything I had to know
	Gm                Bb F
	I heard it on my radio
	Bb F
	Radio

        F
	You gave them all those old time stars
        Gm
	Through wars of worlds - invaded by Mars
        Bb
	You made 'em laugh - you made 'em cry
	Gm                Bb F
	You made us feel like 
	Bb F
        We could fly

	F
	So don't become some background noise
	Bb
	А backdrop for the girls and boys
	Bb
	Who just don't know or just don't care
	Gm
	And just complain when you're not there
	F
	You had your time, you had the power
	Gm
	You've yet to have your finest hour
	Bb F Bb F
	Radio

	F
	All we hear is 	Radio ga ga, radio goo goo, radio ga ga
	F
	All we hear is	Radio ga ga, radio blah blah
	Eb        C
	Radio what's new?
	Bb      C   Bb    C     F
	Radio, someone still loves you!

Queen - Radio Gaga аккорды

guitar chord C
guitar chord F
guitar chord Gm
guitar chord Eb
guitar chord Bb

Разбор Queen - Radio Gaga на гитаре

1 Звезда2 Звезды3 Звезды4 Звезды5 Звезд (Пока оценок нет)
Загрузка...

Добавить комментарий

Ваш адрес email не будет опубликован. Обязательные поля помечены *