Queen – Bohemian Rhapsody (btab)

шрифт
Print this page
2021-01-06 Queen – Bohemian Rhapsody (btab)
Is this the real life etc..
Bb6 C7 F7 Bb Gm7 Bb7 Eb Ab/Eb Eb Cm7 F7
---------------------------|-----|----|----|----|----|------------|----|----|
---------------------------|-----|----|----|----|----|------------|----|----|
---------------------------|-----|----|----|----|----|------------|----|----|
---------------------------|-----|----|----|----|----|------------|----|----|

Cb Bb A Bb Cb Bb A Bb Eb Bb/D Edim/Db F7/C
-----------|------------|---------|-------------------------|------------------
-----------|------------|---------|-------------------------|------------------
-----------|------------|---------|-------------------------|------------------
-----------|------------|---------|-------------------------|------------------

Bb6 Gmadd9 Cmadd9
------|-----|---------------|-----------------------|-------------------------|
------|-----|---------------|-----------------------|-------------------------|
------|-----|---------------|-----------------------|-------------------------|
6-----|6----|6--------------|3----------------------|8------------------------|

Cm F7 _-_ ..sl.. Bb6 Gmadd9
-------------------10---10------3-|-------------------|----------------------|
----------------------------------|-------------------|----------------------|
----------------------------------|-------------------|----------------------|
8---------------------------------|6------------------|3---------------------|

Cm Cm/B Eb/Bb Am7dim5 Abmaj7 Eb/G Eb Bb/D
-------------------------------|------------------------|--------------------|
-------------------------------|------------------------|-1----------------0-|
3------------------2--------1--|--0---------------------|--------------------|
-------------------------------|---------------4------3-|--------------------|

Queen - Bohemian Rhapsody (btab) аккорды

guitar chord A
guitar chord Cm
guitar chord Cb
guitar chord Eb
guitar chord Gm7
guitar chord Cm7
guitar chord C7
guitar chord Bb
guitar chord Bb7

Разбор Queen - Bohemian Rhapsody (btab) на гитаре

1 Звезда2 Звезды3 Звезды4 Звезды5 Звезд (Пока оценок нет)
Загрузка...

Добавить комментарий

Ваш адрес email не будет опубликован. Обязательные поля помечены *