Placebo – Bigmouth Strikes Again

шрифт
Print this page
guitar chord Am
guitar chord C
guitar chord D
guitar chord Em
guitar chord F
guitar chord G
guitar chord A5
2020-10-14 Placebo – Bigmouth Strikes Again
Capo 4

   Am              C        D
E|-0-0-0-0-0-0--0--0-0-0-0--3-3-3-3-3-3-|
B|-1-1-1-1-1-1--0--1-1-1-1--3-3-3-3-3-3-|
G|-2-2-2-2-2-2--0--0-0-0-0--2-2-2-2-2-2-|
D|-2-2-2-2-2-2--0--2-2-2-2--0-0-0-0-0-0-|
A|-0-0-0-0-0-0--0--3-3-3-3--------------|
E|-0-0-0-0-0-0--0--0-0-0-0--------------|

   Am              F       G
E|-0-0-0-0-0-0--0--1-1--0---------------|
B|-1-1-1-1-1-1--0--1-1--0--3------------|
G|-2-2-2-2-2-2--0--2-2--0--0------------|
D|-2-2-2-2-2-2--0--3-3-----0------------|
A|-0-0-0-0-0-0--0-----------------------|
E|-0-0-0-0-0-0--0-----------------------|

   Am              C        D
E|-0-0-0-0-0-0--0--0-0-0-0--3-3-3-3-3-3-|
B|-1-1-1-1-1-1--0--1-1-1-1--3-3-3-3-3-3-|
G|-2-2-2-2-2-2--0--0-0-0-0--2-2-2-2-2-2-|
D|-2-2-2-2-2-2--0--2-2-2-2--0-0-0-0-0-0-|
A|-0-0-0-0-0-0--0--3-3-3-3--------------|
E|-0-0-0-0-0-0--0--0-0-0-0--------------|

   Am              F       G
E|-0-0-0-0-0-0--0-------0---------------|
B|-1-1-1-1-1-1--0-------0--0-0-0-0------|
G|-2-2-2-2-2-2--0--2-2--0--0-0-0-0------|
D|-2-2-2-2-2-2--0--3-3-----0-0-0-0------|
A|-0-0-0-0-0-0--0--3-3-----x-x-x-x------|
E|-0-0-0-0-0-0--0--1-1-----3-3-3-3------|

Solo:
E|--------------------------------------------------------------------|
B|--------------------------------------------------------------------|
G|-14-12-10--10-9-10--14-12-10--10/16-14-14-12-10--10-12-10-10-9-9/16-| x4
D|--------------------------------------------------------------------|
A|--------------------------------------------------------------------|
E|--------------------------------------------------------------------|

Bridge:
   Em      Em        Em      Em        A5
E|----------------------------------------|
B|----------------------------------------|
G|-0---0---0---0-----0---0---0---0--------|
D|-2---0---2---2/7---2---0---2---2/7---7--|
A|-2---0---2---2/7---2---0---2---2/7---7--|
E|-0---0---0---0-----0---0---0---0-----5--|

Placebo - Bigmouth Strikes Again аккорды

guitar chord Am
guitar chord C
guitar chord D
guitar chord Em
guitar chord F
guitar chord G
guitar chord A5

Разбор Placebo - Bigmouth Strikes Again на гитаре

1 Звезда2 Звезды3 Звезды4 Звезды5 Звезд (Пока оценок нет)
Загрузка...

Добавить комментарий

Ваш адрес email не будет опубликован. Обязательные поля помечены *