Pixies – Hey

шрифт
Print this page
2021-05-23 Pixies – Hey
Just bass:
|----------------------------------------------------|
|----------------------------------------------------|
|-------------------0----1---2-----2--2-3-4-5---5--5-|
|-------2--------------------------------------------|
    hey   been trying to meet you

Guitar starts:
|--------2---X----------2----------------------|
|--------3---X-X--3-3-----3------[repeats]-----|
|--------2h4---X--2-2h4-----4------------------|
|----------------------------------------------|
|----------------------------------------------|
|----------------------------------------------|
|                                              |
|----------------------------------------------|
|----------------------------------------------|
|----------------------------------------------|
|--0--2--3---------3---3---------0--1--2--2--2-|
hey
must be a devil between us
or whores in my head
whores at my door
whores in my bed
but hey
where
have you
been
if you go i will surely die

      G    Em Bm G Em Bm
we're chained

Solo:
------------------------------------------------------------|
------------------------------------------------------------|
--7-------------6-------------------------------------------|
----9-7-----------7-----------------------------------------|
--------9-7h8h9-----9--7-7h8h9--7-5-----------7-5-----------|
------------------------------------7-5-5h6h7-----7-5-5h6h7-|

Just bass:
|----------------------------------------------------|
|----------------------------------------------------|
|-------------------0----1---2-----2--2-3-4-5---5--5-|
|-------2--------------------------------------------|
uh said the man to the lady

Guitar starts:
|--------2---X----------2----------------------|
|--------3---X-X--3-3-----3------[repeats]-----|
|--------2h4---X--2-2h4-----4------------------|
|----------------------------------------------|
|----------------------------------------------|
|----------------------------------------------|
|                                              |
|----------------------------------------------|
|----------------------------------------------|
|----------------------------------------------|
|--0--2--3---------3---3---------0--1--2--2--2-|
uh
sad the lady to the man she adored
and the whores like a choir
go uh all night
and mary ain't you tired of this
uh
is
the
sound
that the mother makes when the baby breaks

      G    Em Bm G Em Bm
we're chained

Pixies - Hey аккорды

guitar chord Bm
guitar chord Em
guitar chord G

Разбор Pixies - Hey на гитаре

1 Звезда2 Звезды3 Звезды4 Звезды5 Звезд (Пока оценок нет)
Загрузка...

Добавить комментарий

Ваш адрес email не будет опубликован. Обязательные поля помечены *