Pixies – Here Comes Your Man

шрифт
Print this page
2021-01-23 Pixies – Here Comes Your Man
Intro Riff:
E---------------------------------------------|
B---------------------------------------------|
G---------------------------------------------| 
D--------4--4--5---------------------0--2-----| x3
A--5--5-----------0------2--0--0--4--------5--|
E--------------------3------------------------|

Verse:
E-------------------------------------------------------------|
B----------7--------------------14-----------------8----------|
G-----7-------7---7------14---------14--------9-------9---9---|
D--7--(7)------7----14----14---------14/--9---9-------9-------|
A-------------------------------------------------------------|
E-------------------------------------------------------------|

E-----------------------|
B-------------12--------|
G------12--------12-----|
D--12----12--------12/--|
A-----------------------|
E-----------------------|

D                    A
  Outside there's a box car waiting
Em             G
  Outside the family stew
D             A
  Out by the fire breathing
Em           G
  Outside we wait til face turns blue

D             A
  I know the nervous walking
Em            G
  I know the dirty beard hangs
D             A
  Out by the box car waiting
Em                G
  Take me away to nowhere plains

Bridge:
    Bm                       G         A        D
E|----------------------------------------------------|
B|-12-12-12-12-12-12-12-12--12-(8x)--10-(8x)--15-(9x)-|
G|-11-11-11-11-11-11-11-11--12--------9-------14------|
D|----------------------------------------------------|
A|----------------------------------------------------|
E|----------------------------------------------------|

Bm                    G               A
 There is a wait so long (so long so long)
                      D
 You'll never wait so long

Chorus: (play with Intro riff)
G  A                D 
    Here comes your man
G  A                D 
    Here comes your man
G  A                D 
    Here comes your man

Solo:
E----------------------------------------------------------------|
B----------------------------------------------------------------|
G--11--9-------------------------9---11--9----------11-11-9----9-|
D---------12--12--11--11--11h12-------------12--12----------12---|
A----------------------------------------------------------------|
E----------------------------------------------------------------|

D                    A
They shake on the boxcar moving[?]
Em            G
They shake to the land that's falling down
D                    A
Is a wind makes-a palms start blowing
Em            G
А big big storm fall and break my crown

Bridge:
    Bm                       G         A        D
E|----------------------------------------------------|
B|-12-12-12-12-12-12-12-12--12-(8x)--10-(8x)--15-(9x)-|
G|-11-11-11-11-11-11-11-11--12--------9-------14------|
D|----------------------------------------------------|
A|----------------------------------------------------|
E|----------------------------------------------------|

Bm                    G               A
 There is a wait so long (so long so long)
                      D
 You'll never wait so long

Chorus: (play with Intro riff)
G  A                D 
    Here comes your man
G  A                D 
    Here comes your man
G  A                D 
    Here comes your man

Solo: D A Em G

Solo:
   E|------------------------------------------------------------|
   B|-15-15-15-17-15-17-15---------------------------------------|
   G|-14-14-14-14-14-14-14--14-14-16-14-16-14--12-12-14-12-14-12-|
   D|-----------------------14-14-14-14-14-14--12-12-12-12-12-12-| x3
   A|------------------------------------------------------------|
   E|------------------------------------------------------------|

   E|-----------------|------------------------------------------|
   B|-----------------|------------------------------------------|
   G|-12--12-12-12-12-|------------------------------------------|
   D|-14--14-14-14-14-|--12-12-12--12-12-12-1214-14-14--14-14-14-|
   A|-----------------|------------------------------------------|
   E|-----------------|------------------------------------------|

   E|--------------------------------------------|
   B|--------------------------------------------|
   G|--------------------------------------------|
   D|-14/12-12-12--12-12-12-1214-14-14--14-14----|
   A|--------------------------------------------|
   E|--------------------------------------------|

Chorus: (play with Intro riff)
G  A                D 
    Here comes your man
G  A                D 
    Here comes your man
G  A                D 
    Here comes your man

Pixies - Here Comes Your Man аккорды

guitar chord A
guitar chord Bm
guitar chord D
guitar chord Em
guitar chord G

Разбор Pixies - Here Comes Your Man на гитаре

1 Звезда2 Звезды3 Звезды4 Звезды5 Звезд (Пока оценок нет)
Загрузка...

Добавить комментарий

Ваш адрес email не будет опубликован. Обязательные поля помечены *