Pink Floyd – Nobody Home

шрифт
Print this page
2021-01-13 Pink Floyd – Nobody Home
this is a best piece on acoustic i have ever heard,		
Am      
e)----------0-----------------0-----------------0-------
B)--------1---1-------------1---1-------------1---1-----
G)------2-------2---------2-------2---------2-------2---
D)----2--------------2--3--------------3--4-------------
A)------------------------------------------------------
E)------------------------------------------------------
e)----------0-----------------0---------0----------0----
B)--------1---1-------------1---------1----------1------
G)------2-------2---------2---------2----------2--------
D)-4--3--------------3--2---------0---------------------
A)------------------------------------------3-----------
E)------------------------------------------------------
					
e)-----------0--|----------0----------------------------|
B)---------1----|--------1---1-------------1---1--------|
G)-------2------|------2-------2---------2-------2------|
D)--------------|----2-----------------2-----------2----|
A)---2----------|--0-----------------0---------------0--|
E)--------------|---------------------------------------|
			| play this twice |
     	
e)----------0-----------------0-----------------0-------
B)--------1---1-------------1---1-------------1---1-----
G)------2-------2---------2-------2---------2-------2---
D)----2--------------2--3--------------3--4-------------
A)------------------------------------------------------
E)------------------------------------------------------
e)----------0-------------------0------------------0----
B)--------1---1---------------1------------------1---1--
G)------2-------2-----------2------------------2------2-
D)-4--3--------------3-2--0---------0--------2----------
A)------------------------------------3-2--0------------
E)------------------------------------------------------
e)--------------------------0---------------------------
B)------1--1--------------1---1-------------1---1-------
G)----2------2----------2-------2---------2-------2-----
D)--2----------2------2-----------------2-----------2---
A)0--------------0--0-----------------0---------------0-
E)------------------------------------------------------
	
e)--------0---------------------0-----------------0-----
B)------1---1-------------0--3-----3------------1---1---
G)----0-------0---------1-------------1-------2-------2-
D)--2-----------------2---------------------2-----------
A)3---------------3-2---------------------0-------------
E)------------------------------------------------------
	
e)------------------------------------------------------
B)----5p3--3p1--1p0-------------------------------------
G)--5----------------4p2--------------------------------
D)------------------------------------------------------
A)------------------------------------------------------
E)------------------------------------------------------
e)--------0---------------------0-----------------0-----
B)------1---1-------------0--3-----3------------1---1---
G)----0-------0---------1-------------1-------2-------2-
D)--2-----------------2---------------------2-----------
A)3---------------3-2---------------------0-------------
E)------------------------------------------------------
	
e)-----------8-------9----------------------------------
B)--------5------5--------------------------------------
G)------------------------------------------------------
D)------------------------------------------------------
A)------------------------------------------------------
E)------------------------------------------------------
Am      
e)----------0-----------------0-----------------0-------
B)--------1---1-------------1---1-------------1---1-----
G)------2-------2---------2-------2---------2-------2---
D)----2--------------2--3--------------3--4-------------
A)------------------------------------------------------
E)------------------------------------------------------
			slows down from here	
e)----------0-------------------0----------0----------0-
B)--------1---1---------------1---------1----------1----
G)------2-------2----------2---------2----------2-------
D)-4--3--------------3--2---------0---------------------
A)-------------------------------------------3----------
E)------------------------------------------------------
					
e)-----------0------------0-----------------------------
B)---------1------------1---1---some slides here -------
G)-------2------------2---------------------------------
D)------------------2-----------------------------------
A)---2------------0-------------------------------------
E)------------------------------------------------------
if u can figure that last part, please mail me.
[email protected]

Pink Floyd - Nobody Home аккорды

guitar chord Am

Разбор Pink Floyd - Nobody Home на гитаре

1 Звезда2 Звезды3 Звезды4 Звезды5 Звезд (Пока оценок нет)
Загрузка...

Добавить комментарий

Ваш адрес email не будет опубликован. Обязательные поля помечены *