Pink Floyd – Learning To Fly

шрифт
Print this page
2021-02-16 Pink Floyd – Learning To Fly
Verse:
           v-- with bar
E|---------/97----0----2--2-|
B|-3-------/108----0---3--3-|
G|-0-------/97----0----2--2-| x5
D|-0----------------0-------|
A|------------------2-------|
E|-3------------------------|

Chorus:
--------------------------------------------------|
---5-----5-----5----------------------------------|
---5-----5-----5---------------------------5----7-|
---5-----5-----5---------7----5----3----3--5----7-|
---3-----3-----3----2----7----5----3----3--3----5-|
-------------------------5----3----1----1---------|

1st Solo:
-------------------------------15>14VVVVVV-----------------------------|
-18>(20)vvvvvvvv-----------------------------15>12--15>(17)vvvv--15>12-|
---------------------14>(16)-------------------------------------------|
-----------------------------------------------------------------------|
-----------------------------------------------------------------------|
-----------------------------------------------------------------------|

-----------------------------------------------|
-(15)>14>12/-14>12-----------------------------|
----------------------11>(12)===>11--9--97-----|
---------------------------------------------5-|
-----------------------------------------------|
-----------------------------------------------|

Second Verse:
...tips of my wings						 Unheeded ...
----------------------------------------------------------------------|
----------------------------15----------------------------------------|
-------------------14>(16)-------(16)>14>12--14--1211>12--------------|
------------------------------------------------------------14vvvvvv--|
----------------------------------------------------------------------|
----------------------------------------------------------------------|

... of everything		No navigator...  ... find my way home....
-----------------14---14---15vvvvv-------------------------------15vvvvvvv-|
---------------------------------------------------------------------------|
-----------------14---14---16vvvvv--------------------------16-------------|
---------------------------------------------------------------------------|
---------------------------------------------------------------------------|
---------------------------------------------------------------------------|

... to stone
---------------------------------------------|
---------------------------------------------|
--------------(15)>14>12--12--14-12vvvvvvvvv-|
---------------------------------------------|
---------------------------------------------|
---------------------------------------------|

C     (B)  A5			  G5		  F5
	   ... learning to fly
-----------------------------------------------------|
-----------------------------------8-----------------|
----------------------------7>(9)------(9)>7--5>7--5-|
-----------------------------------------------------|
-----------------------------------------------------|
-----------------------------------------------------|

With Chorus:
... determined to try...
-----------------------------------8---------/8vvvvvvv-|
----5>(6)>5---------------------------10>8-------------|
---------------------------------------------/9vvvvvvv-|
-------------------------------------------------------|
-------------------------------------------------------|
-------------------------------------------------------|

... circling skies...			 ...earthbound misfit....
						  v----v- w/ bar
------------------8---------------------------------------------------|
----------------------------------------------------------------------|
---------------------7>(9)>7-5vvvvvv------------(9)>7>5--7vvvv///-542-|
----------------------------------------------------------------------|
----------------------------------------------------------------------|
----------------------------------------------------------------------|

---------------------------------------------------5--------|
---/12>(13)vvvvvvvv------------------------------5---8------|
--------------------------7>(9)--7>9--75--7>(9)-------7>(9)-|
------------------------------------------------------------|
------------------------------------------------------------|
------------------------------------------------------------|

----------------------------------------14VVVVVVVV-|
---------------------------------------------------|
----7>(9)>7>5---5-7>(9)vvvvvv---12/14--------------|
--------------7------------------------------------|
---------------------------------------------------|
---------------------------------------------------|

C		   (B) 	      A		   
There's no sensation to compare with this, 
G     F5
Suspended animation...

Chorus figure over:
...bliss
----------------------------|
--------------------8-8-8-8-|
---------5--7>(9)-----------|
----------------------------|
----------------------------|
----------------------------|

Solo 2:
------15-------15--------15--------15--------------------15--|
--18>(20)---18>(20)---18>(20)---18>(20)---18>(20)----18>(20)-|
-------------------------------------------18>(19)-----------|
-------------------------------------------------------------|
-------------------------------------------------------------|
-------------------------------------------------------------|

-0---0-0--0-------------------0---0-----------------------|
-3/5-5-5--5--3----------------0---0-----------------------|
-----------------4--0--2>(3)----------42----------0-------|
----------------------------------------------2>0-----2>0-|
----------------------------------------------------------|
----------------------------------------------------------|

-----------------------------------------------|
-----------------------------------------------|
--12>(14)>12---14>(16)====>14>12vvvvv-------12-|
----------------------------------------14-----|
-----------------------------------------------|
-----------------------------------------------|

-------------------------------------------------------|
------15----15----15------------15----15---15----------|
--14>(16)--(16)-->14--12----14>(16)--(16)->14--12------|
----------------------------------------------------14-|
-------------------------------------------------------|
-------------------------------------------------------|

---------------------------------------------------3vvvv-------5----------|
---15--15------15------------------------------/5----------5------5vvvvvv-|
---12--12--14>(16)--------------------------0-----------------------------|
---------------------16----12---12vvvvvv----------------------------------|
--------------------------------------------------------------------------|
--------------------------------------------------------------------------|

----------------------------------------------------------------|
----------------------------------------------------------------|
-------------------------------------------7--------------------|
-----97--5------5--7>(8)--7--5-------7/9-----87>5------5vvvvvvv-|
-------------7--------------------7-------------------7---------|
----------------------------------------------------------------|

--0----0--0--0--0----------------------------------------------------|
--3/5--5--5--3--0----------------------------------------------------|
--------------------2>(3)>2>0------2>(3)>2>0------0-2>(3)>2>0--------|
-------------------------------2--------------2----------------2---0-|
---------------------------------------------------------------------|
---------------------------------------------------------------------|

-------------------------------------------------|
-----------------------15------------------------|
--(15)>14>12--14>(16)-------12>14---12vvvvvvvvvv-|
-------------------------------------------------|
-------------------------------------------------|
-------------------------------------------------|

Pink Floyd - Learning To Fly аккорды

guitar chord G

Разбор Pink Floyd - Learning To Fly на гитаре

1 Звезда2 Звезды3 Звезды4 Звезды5 Звезд (Пока оценок нет)
Загрузка...

Добавить комментарий

Ваш адрес email не будет опубликован. Обязательные поля помечены *