Pink Floyd – Julia Dream

шрифт
Print this page
2021-05-17 Pink Floyd – Julia Dream
   Am                              C        Em       Am
E|-------0-----------0-------------------------------------0--------|
B|-----1---1-------1---1-----------------1--------0------1---1------|
G|---2-------2---2-------2-------------0--------1------2-------2----|
D|-----------------------------------2--------2---------------------|
A|-0-----------0-------------------3-----------------0-----------0--|
E|------------------------------------------0-----------------------|
   Sunlight bright upon my pillow, Lighter  than an  eiderdown

   Am               Dm             C        Em       Am
E|-------0----------------1--------------------------------0--------|
B|-----1---1------------3---3------------1--------0------1---1------|
G|---2-------2--------2-------2--------0--------1------2-------2----|
D|------------------0----------------2--------2---------------------|
A|-0-------------------------------3-----------------0-----------0--|
E|------------------------------------------0-----------------------|
   Will she let the weeping willow wind his branches round?

   Am               Dm               C        Em       Am
E|-------0----------------1----------------------------------0-------|
B|-----1---1------------3---3--------------1-------0-------1---1-----|
G|---2-------2--------2-------2----------0-------1-------2-------2---|
D|------------------0------------------2-------2---------------------|
A|-0---------------------------------3-----------------0-----------0-|
E|-------------------------------------------0-----------------------|
   Julia dream,     dreamboat queen, queen of all my dreams

   Am                              C        Em       Am
E|-------0-----------0-------------------------------------0--------|
B|-----1---1-------1---1-----------------1--------0------1---1------|
G|---2-------2---2-------2-------------0--------1------2-------2----|
D|-----------------------------------2--------2---------------------|
A|-0-----------0-------------------3-----------------0-----------0--|
E|------------------------------------------0-----------------------|
  Every night I turn the light out Waiting for the velvet bride

   Am               Dm             C        Em       Am
E|-------0----------------1--------------------------------0--------|
B|-----1---1------------3---3------------1--------0------1---1------|
G|---2-------2--------2-------2--------0--------1------2-------2----|
D|------------------0----------------2--------2---------------------|
A|-0-------------------------------3-----------------0-----------0--|
E|------------------------------------------0-----------------------|
  Will the scaly armadillo Find me where I'm hiding?

   Am               Dm               C        Em       Am
E|-------0----------------1----------------------------------0-------|
B|-----1---1------------3---3--------------1-------0-------1---1-----|
G|---2-------2--------2-------2----------0-------1-------2-------2---|
D|------------------0------------------2-------2---------------------|
A|-0---------------------------------3-----------------0-----------0-|
E|-------------------------------------------0-----------------------|
  Julia dream, dreamboat queen, queen of all my dreams

Interlude: G D F A7
           G A7 D D

   Am                              C        Em       Am
E|-------0-----------0-------------------------------------0--------|
B|-----1---1-------1---1-----------------1--------0------1---1------|
G|---2-------2---2-------2-------------0--------1------2-------2----|
D|-----------------------------------2--------2---------------------|
A|-0-----------0-------------------3-----------------0-----------0--|
E|------------------------------------------0-----------------------|
  Will the misty master break me? Will the key unlock my mind?

   Am               Dm             C        Em       Am
E|-------0----------------1--------------------------------0--------|
B|-----1---1------------3---3------------1--------0------1---1------|
G|---2-------2--------2-------2--------0--------1------2-------2----|
D|------------------0----------------2--------2---------------------|
A|-0-------------------------------3-----------------0-----------0--|
E|------------------------------------------0-----------------------|
  Will the following footsteps catch me? Аm I really dying?

   Am               Dm               C        Em       Am
E|-------0----------------1----------------------------------0-------|
B|-----1---1------------3---3--------------1-------0-------1---1-----|
G|---2-------2--------2-------2----------0-------1-------2-------2---|
D|------------------0------------------2-------2---------------------|
A|-0---------------------------------3-----------------0-----------0-|
E|-------------------------------------------0-----------------------|
  Julia dream, dreamboat queen, queen of all my dreams

Pink Floyd - Julia Dream аккорды

guitar chord Am
guitar chord C
guitar chord D
guitar chord Dm
guitar chord Em
guitar chord G
guitar chord A7

Разбор Pink Floyd - Julia Dream на гитаре

1 Звезда2 Звезды3 Звезды4 Звезды5 Звезд (Пока оценок нет)
Загрузка...

Добавить комментарий

Ваш адрес email не будет опубликован. Обязательные поля помечены *