Переделанные песни (пародии) – Король и Шут “Лесник”

шрифт
Print this page
guitar chord Am
guitar chord Dm
guitar chord F
guitar chord G
guitar chord Gm
2020-08-17 Переделанные песни (пародии) – Король и Шут “Лесник”
Intro:
Am
|--------------0-0-| x2
|------1-1-3-3-----|
|--2-2-------------|
|------------------|
|------------------|
|------------------|

F
|----------3-3-1-1-| x2
|------1-1---------|
|--2-2-------------|
|------------------|
|------------------|
|------------------|

Dm
|--3-3-1-1-0-0-----| x2
|--------------3-3-|
|------------------|
|------------------|
|------------------|
|------------------|

G
|------------------| x2
|------0-0-1-1-3-3-|
|--0-0-------------|
|------------------|
|------------------|
|------------------|

1 куплет:
Am         Am           F        G
Замученный скинами я выбился из сил
Am         Am           F        G
И в доме у Горшка я ночлега попросил.
Am         Am           F        G
С улыбкою беззубой меня он в дом пустил,
Am         Am           F        G
И водкою прикольной конечно угостил.

Припев:
 Am
Пейте водку панки,
   F
Это нужная вода,
   Dm
Это нужная вода,
   Gm
Это нужная вода.
 Am
Бейте скинов панки,
    F
Это просто гопота,
    Dm
Это просто гопота,
    Gm
Это просто гопота,

2 куплет:
Am         Am           F        G
В глазах моих темнело, пьянел я за столом,
Am         Am           F        G
Горшок добавил пива, помог бороться с сном.
Am         Am           F        G
И  вскоре  я  забылся  от  радости  такой
Am         Am           F        G
Ведь я совсем не хиппи а только панк простой.

Припев:
 Am
Пейте водку панки,
   F
Это нужная вода,
   Dm
Это нужная вода,
   Gm
Это нужная вода.
 Am
Бейте скинов панки,
    F
Это просто гопота,
    Dm
Это просто гопота,
    Gm
Это просто гопота,

3 куплет:
Am         Am           F      G
И гопота завыла у Миши под окном,
Am         Am           F        G
Горшок заулыбался и вдруг покинул дом.
Am         Am           F        G
Но вскоре возвратился он с гриндами в зубах
Am         Am           F        G
И радостно промолвил "забудем о скинах"

|-------------------------------------------| x2
|-------------------------------------------|
|-------------------------------------------|
|===========--------------------------------|
|----7-7-8-7---7-7-8-7---3-3-5-3---5-5-7-5--|
|--5---------5---------1---------3----------|

Припев:
 Am
Пейте водку панки,
   F
Это нужная вода,
   Dm
Это нужная вода,
   Gm
Это нужная вода.
 Am
Бейте скинов панки,
    F
Это просто гопота,
    Dm
Это просто гопота,
    Gm
Это просто гопота,

Переделанные песни (пародии) - Король и Шут "Лесник" аккорды

guitar chord Am
guitar chord Dm
guitar chord F
guitar chord G
guitar chord Gm

Разбор Переделанные песни (пародии) - Король и Шут "Лесник" на гитаре

1 Звезда2 Звезды3 Звезды4 Звезды5 Звезд (Пока оценок нет)
Загрузка...

Добавить комментарий

Ваш адрес email не будет опубликован. Обязательные поля помечены *