Offspring – She’s Got Issues

шрифт
Print this page
2021-04-04 Offspring – She’s Got Issues
Проигрыш: B

Куплет:
Em          Bm           D             A  Em
I'm seeing this girl and she just might be out of her mind
Well she's got baggage and it's all the emotional kind
She talks about closure and that validation bit
I don't mean to be insensitive, but I really hate that shit

Припев:
G|-9-9-9-9-8/9-9-94-4-4-4-3/4-4-4/7-7-7-7-7--------------------|
D|-9-9-9-9-8/9-9-94-4-4-4-3/4-4-4/7-7-7-7-7-7--7-7--7-7-7-7-7--|
A|-7-7-7-7-6/7-7-72-2-2-2-1/2-2-2/5-5-5-5-5-7--7-7--7-7-7-7-7--|
E|-------------------------------------------5--5-5--5-5-5-5-5-|

And I say
Yeah yeah!Yeah yeah!
Oh man she's got issues
And I'm gonna pay
Yeah yeah!Yeah yeah!
She thinks she's the victim
Yeah

Куплет:
Now I know she'll feel abandoned
If I don't stay over late
And I know she's afraid to commit
But it's only our second date

Припев:
And I say
Yeah yeah!Yeah yeah!
Oh man she's got issues
And I'm gonna pay
Yeah yeah!Yeah yeah!
She thinks she's the victim
But she takes it all out on me

Bridge:
G|--5-5--55-5-5-5---------------------------9-9-9-99-9-9-9-|
D|--5-5--55-5-5-5--5-5-5-55-5-5-5-5/7-7-7-7-9-9-9-99-9-9-9-|
A|--3-3--33-3-3-3--5-5-5-55-5-5-5-5/7-7-7-7-7-7-7-77-7-7-7-|
E|-----------------3-3-3-33-3-3-3-3/5-5-5-5----------------|

I don't know why you're messed up
I don't know why your whole life is a chore
Just Do me a favor
    Bm
And check your baggage at the door

Куплет:
Now she talks about her ex nonstop, but I don't mind
But when she calls out his name in bed
That's where I draw the line
You told me a hundred times how your father left and he's gone
But I wish you wouldn't call me daddy
When we're gettin' it on

Припев:
Oh man she's got issues
And I'm gonna pay
She's playing the victim
And taking it all out on me
My god she's got issues
And I'm gonna pay

Bridge: - 2 (раза)

If you think I'm controlling
Then why Do you follow me around
If you're not co-dependent
Then why Do you let others drag you down

I don't know why you're messed up
I don't know why your whole life is a chore
Just Do me a favor
And check your baggage at the door

Offspring - She's Got Issues аккорды

guitar chord A
guitar chord Bm
guitar chord D
guitar chord Em
1 Звезда2 Звезды3 Звезды4 Звезды5 Звезд (Пока оценок нет)
Загрузка...

Добавить комментарий

Ваш адрес email не будет опубликован. Обязательные поля помечены *